The World As I See It (live) Uke tab by Jason Mraz

5 Chords used in the song: D, E, A, F#m, Bm

Add tab to your SongBook
Tablature / ChordsFont size: A- A A+

Don't know how to read a tab or a chord ? Check out these uke lessons:

Detailed guide to strumming and picking
How to read uke tabs
Reading chord diagrams

# Track 14 on the Love is a Four Letter Word album.

A|-4-----4-------4-----4-------|
E|-----2-----2-------2-----2---|
C|-----------------------------|
G|---2-----2-------2-----2-----|

A|-2-----2-------2-----2-------|
E|-----0-----0-------0-----0---|
C|-----------------------------|
G|---1-----1-------1-----1-----|

# Yeah the World as I see it is a
A|-4-----4-------4-----4-------|
E|-----2-----2-------2-----2---|
C|-----------------------------|
G|---2-----2-------2-----2-----|

# Remarkable place... A A Beautiful
A|-2-----2-------2-----2-------|
E|-----0-----0-------0-----0---|
C|-----------------------------|
G|---1-----1-------1-----1-----|

# House in Forest... of
A|-4-----4-------4-----4-------|
E|-----2-----2-------2-----2---|
C|-----------------------------|
G|---2-----2-------2-----2-----|

# Stars in Outer Space
A|-2-----2-------2-----2-------|
E|-----0-----0-------0-----0---|
C|-----------------------------|
G|---1-----1-------1-----1-----|
D D E E
From a birds eye view I can see
A A F#m F#m
It has a well-rounded personality
D D E E F#m F#m
From a birds eye view I can see we are family

Bm Bm
And it's not hard for me to love you
# Hard for me to love you
A A
No it's not a difficult thing
Bm Bm
It's not hard for me to love you
# Hard for me to love you
A A
Because you are the world to me

Bm Bm A A
Yeah the World as I see it is a remarkable place
Bm Bm
Every man makes a difference
A A
And every mothers child is a saint
D D E E
From a birds eye view I can see
A A F#m F#m
We are spiraling down in gravity
D D E E F#m F#m
From a birds eye view I can see you are just like me

Bm Bm
Its not hard for me to love you
# Hard for me to love you
A A
No its not a difficult thing
Bm Bm
Its not hard for me to love you
A A
Hard for me to love you unconditionally

Bm Bm
No its not hard for me to love you
# Hard for me to love you
A A
No its not a difficult thing
Bm Bm
Its not hard for me to love you
# Hard for me to love you
A A
Because you are the world to me

D D E E
You are the mountain, you are the rock
A A E E F#m F#m
You are the core and youre the spark
D D E E
You are the eagle, you are the lark
A A E E F#m F#m
You are the world and youre remarkable

D D E E
Youre the ocean eating the shore
A A E E F#m F#m
You are the calm inside the storm
D D D D
You're every emotion, you can endure
E E F#m F#m Bm Bm A A
You are the world and the world is yours
Bm Bm A A
OOOOOOOOOOOOO

Bm Bm
No its not hard for me to love you
# Hard for me to love you
A A
No its not a difficult thing
Bm Bm
Its not hard for me to love you
# Hard for me to love you
A A
Hard for me to love you unconditionally

Bm Bm
No its not hard for me to love you
# Hard for me to love you
A A
No it's not a difficult thing
Bm Bm
Its not hard for me to love you
# Hard for me to love you
A A
Because you are the world to me

# Yeah the World as I see it is a
A|-4-----4-------4-----4-------|
E|-----2-----2-------2-----2---|
C|-----------------------------|
G|---2-----2-------2-----2-----|

# Remarkable place
A|-2-----2-------2-----2-------|
E|-----0-----0-------0-----0---|
C|-----------------------------|
G|---1-----1-------1-----1-----|


# http://ukulily-filly.blogspot.com/2012/05/free-ukulele-tabs-with-lyrics.html

 

Tab comments (0)
No comment yet :(
Need help, a tip to share, or simply want to talk about this song? Start the discussion!

You must be logged in to join the discussion
or Register

 

About this song

No information about this song.