Summertime Rolls Uke tab by Janes Addiction

Ukulele Tab without chords.

Rate song!
PrintAdd tab to your SongBook

Tablature / Chords (Full Song)

Font size: A- A A+

Artist: 
Year:  1988
Difficulty: 
5
(Intermediate)
Key: F#mTablature (no chords)
C# C#
A|--4------4----4-4------4----4--4-|--4------4------4------4---------4|
E|--1------1----1-1------1----1--2-|--4------4------4------4---------4|
C|1-1----1-1----1-1----1-1----1--1-|1-1----1-1----1-1----1-1----1--1-1|
G|--1------1----1-1------1----1--1-|--1------1------1------1---------1|
C#m7 C#m7
A|--4------4----4-4------4----4--4-|--4------4------4------4---------4|
E|--4------4----4-4------4----4--2-|--4------4------4------4---------4|
C|4-4----4-4----4-4----4-4----4--4-|1-1----1-1----1-1----1-1----1--1-1|
G|--4------4----4-4------4----4--4-|--1------1------1------1---------1|

Uke tab by , 09 Mar 2013

Tab comments (1)

Something to say?
Share your strumming patterns, chords or tips to play this tab! ;)
Filter by:
ninafuller488 avatar
I can't wait to feel the electricity between us turn into something even more thrilling. f1nd me on ninafuller_mooo_com change _ to dot
14 Jul 2024
Comment

Top Tabs & Chords by Janes Addiction, don't miss these songs!

About this song: Summertime Rolls

No information about this song.

Did you cover Summertime Rolls on your Ukulele? Share your work!
Submit a cover