The Way I Am Uke tab by Ingrid Michaelson

Ukulele Tab without chords.

Add tab to your SongBook
Tablature / ChordsFont size: A- A A+

Don't know how to read a tab or a chord ? Check out these uke lessons:

Detailed guide to strumming and picking
How to read uke tabs
Reading chord diagrams

Intro

|-----------|-1---1-----|-5---5-----|-3---3------|
|-1---1-----|-----------|-----------|---------0--|
|-----------|-----------|-----------|------------|
|-----------|-----------|-----------|------------|
|-----------|-1---1-----|-5---5-----|-3---3--------|
|-1---1-----|-----------|-----------|---------0----|
|-----------|-----------|-----------|--------------|
|-----------|-----------|-----------|--------------|

Verse

|-----------|-1---1-----|-5---5-----|-3---3------|
|-1---1-----|-----------|-----------|---------0--|
|-----------|-----------|-----------|------------|
|-----------|-----------|-----------|------------|
|-----------|-1---1-----|-5---5-----|-3---3---0--|
|-1---1-----|-----------|-----------|------------|
|-----------|-----------|-----------|------------|
|-----------|-----------|-----------|------------|

Chorus

|-1---1------|------------|------------|------------|
|------------|---------0--|-1---1---0--|------------|
|---------2--|-0---0------|------------|-2---2---0--|
|------------|------------|------------|------------|
|-1---1---3--|-4--------|-----------|-----------|
|------------|----------|-1---1-----|-1---1-----|
|------------|----------|-----------|-----------|
|------------|----------|-----------|-----------|

 

Tab comments (1)
You must be logged in to join the discussion
or Register

 

jujurules avatar
seems a bit off
23 Jan 2017
About this song

No information about this song.