The Way I Am Uke tab by Ingrid Michaelson

Ukulele Tab without chords.

Add tab to your SongBook
Tablature / ChordsFont size: A- A A+

Don't know how to read a tab or a chord ? Check out these uke lessons:

Detailed guide to strumming and picking
How to read uke tabs
Reading chord diagrams

Verse:

A|----------1----1----5----5----3----3--|
E|1----1-------------------------------0|x2
C|--------------------------------------|
G|--------------------------------------|


Chorus:

A|1--1-5-3--3-7-8--8-7-5--5-3-1--1-3--4-|
E|--------------------------------------|
C|--------------------------------------|
G|--------------------------------------|


Transition from Chorus to Verse:

A|3-----0---------3-----0---------------|
E|1-----1---------1-----1---------------|
C|--------------------------------------|
G|--------------------------------------|

 

Tab comments (1)
You must be logged in to join the discussion
or Register

 

FlorenceApple avatar
flag for US(ISO2) (Nixa)
This is an excellent tab and anyone who says otherwise is clearly deaf.
25 Feb 2013
About this song

No information about this song.