The Chain Uke tab by Ingrid Michaelson

Ukulele Tab without chords.

Add tab to your SongBook
Tablature / ChordsFont size: A- A A+

Don't know how to read a tab or a chord ? Check out these uke lessons:

Detailed guide to strumming and picking
How to read uke tabs
Reading chord diagrams

A-----2-2---2-2---2-2---2-2---2-2---2-2---2-2---2-2--|
E-----0-0---0-0---0-0---0-0---0-0---0-0---0-0---0-0--|
C---4-----4-----2-----2------1----1-----0-----0------|
G----------------------------------------------------|

A-----2-2---2-2---2-2-2-2-2--02-2-2-2-2---2-2---2-2--|
E-----0-0---0-0---0-0---0-0---0-0---0-0---0-0---0-0--|
C---4-----3-----1-----------------------4-----4------|
G----------------------------------------------------|

A---0-2-2-0-2-2-2-2-2-2-2-2---2-2---2-2---2-2-2-2-2--|
E-----0-0---0-0---0-0---0-0---0-0---0-0---0-0---0-0--|
C----------------------------4----3-----1------------|
G----------------------------------------------------|

A---0-2-2-0-2-2-2-2-2-2-2-2---2-2---2-2---2-2-2-2-2--|
E-----0-0---0-0---0-0---0-0---0-0---0-0---0-0---0-0--|
C----------------------------4----3-----1------------|
G----------------------------------------------------|

A---0-2-22--2-2---2-2---2-2--|
E-----0-0---0-0---0-0---0-0--|
C--------------4-----4-------|
G----------------------------|

A-----2-2---2-2---2-2---2-2---2-2---2-2---2-2---2-2--|
E-----0-0---0-0---0-0---0-0---0-0---0-0---0-0---0-0--|
C---4-----4-----2-----2------1----1-----0-----0------|
G----------------------------------------------------|

A-----2-2---2-2---2-2-2-2-2--02-2-2-2-2---2-2---2-2--|
E-----0-0---0-0---0-0---0-0---0-0---0-0---0-0---0-0--|
C---4-----3-----1-----------------------4-----4------|
G----------------------------------------------------|

A---0-2-2-0-2-2-2-2-2-2-2-2---2-2---2-2---2-2-2-2-2--|
E-----0-0---0-0---0-0---0-0---0-0---0-0---0-0---0-0--|
C----------------------------4----3-----1------------|
G----------------------------------------------------|

A---0-2-2-0-2-2-2-2-2-2-2-2---2-2---2-2---2-2-2-2-2--|
E-----0-0---0-0---0-0---0-0---0-0---0-0---0-0---0-0--|
C----------------------------4----3-----1------------|
G----------------------------------------------------|

 

Tab comments (3)
You must be logged in to join the discussion
or Register

 

rachelbuss avatar
This would be perfect if it had lyrics so I knew when to come in vocally and which part is the chorus and what is the verse.
19 Sep 2012
lilyshard avatar
flag for CA(ISO2) (Toronto)
Now I can finally learn this song! Yay!
09 Sep 2012
eab2195 avatar
flag for US(ISO2) (Warminster)
it's good! just need to show when to start singing
08 Sep 2012
About this song

No information about this song.