Misty Mountains Uke tab by Howard Shore

Ukulele Tab without chords.

Add tab to your SongBook
Tablature / ChordsFont size: A- A A+

Don't know how to read a tab or a chord ? Check out these uke lessons:

Detailed guide to strumming and picking
How to read uke tabs
Reading chord diagrams

A------0--3-5-7-5-3-2-0--------|
E--0-3-------------------------|
C------------------------------|
F------------------------------|

A----0-2-2--3-5-3-2-0----------|
E--0---------------------------|
C------------------------------|
F------------------------------|

A------2------2---0-2----------|
E--------0---------------------|
C--0-2----------2--------------|
F------------------------------|
G----0-2-3----2h3p2----0-------|
D--0----------------3----------|
C------------------------------|
F------------------------------|
A--------0-0--3-5-3-2---0------|
E--0-0-3--------------3--------|
C------------------------------|
F------------------------------|
A------0-2-2----5-2-7----------|
E--0-3-------------------------|
C------------------------------|
F------------------------------|

A--2---2-----2---0-2-----------|
E--------0---------------------|
C----2---------2---------------|
F------------------------------|
G----0-2-3-3---2---0-----------|
D--0-------------3-------------|
C------------------------------|
F------------------------------|

 

Tab comments (1)
You must be logged in to join the discussion
or Register

 

esparon avatar
flag for GB(ISO2) (Edinburgh)
hi! looks good, hadn't had a chance to play it but i was just wondering is it in low g or high g tuning?
13 Feb 2018
About this song

No information about this song.