Homecoming Uke tab by Hey Monday

6 Chords used in the song: Em, G, D, A, C, B

PrintAdd tab to your SongBook
Tablature / ChordsFont size: A- A A+

Don't know how to read a tab or a chord ? Check out these uke lessons:

Detailed guide to strumming and picking
How to read uke tabs
Reading chord diagrams

# The the riff is a syncopated Em Em arpeggio with an A A between G G (3) and B B (2)

Riff:
A-----0-2-0--------0-2-0---------0-2-0-------0-2-0------------
E----3-----3-----3-------3-----3-------3----3------3----------
C--4-----------4-------------4------------4-------------------
G-------------------------------------------------------------

Verse:
Em Em G G
Homecoming, I'm coming,
D D A A
My Sweet Mistake.
Em Em G G
Summer's over,
D D A A
Hope it's not too late.


Pre-Chorus:
Em Em
Carved out our names,
C C
Do you remember that?


# Follow this pattern throughout the verses.


Chorus:
I'm xxxxxx xxxx,

I'm xxxxxx xxxx,

Did xxx xxxx xxx xxxxx x xxx xxxx?

I xxxxxx xx xxx,

I xxxxxx xxx xx,

I xxxxxx xxx

I'm xxxxxx xxxx,

I xxxxx xxxx,

When xxx xxx xxxxxx xxxxx xx xxxx.

Em Em
If xx xxxxxx,
G G D D A A
Fallin' xxxxx

For you.

RIFF

CHORUS


Bridge:
C C
You've xxx xxxxxxx xx xx
D D
Is xxxx xxx xxx xx xx
G G D D
'Cause x xxxx xxxx xxx xx xxx xxxxxxx
C C
I'm xxxxxx xxxx xxx xxxx
D D
Don't xxx xxxx xxxxx xx,

Please xxxx xxxx xxxx.


Solo:
Em Em G G C C D D
A---7-7-x-x-9-9-10-10-10-10-10--12-12-12-12-12-------
E----------------------------------------------------
C----------------------------------------------------
G----------------------------------------------------

Repeat. ^


Pre-Chorus B B
# This is basically an Em Em arpeggio by itself.

A-----2------2-----2------------------------------------
E----3--3--3---3--3--3----------------------------------
C--4-----4------4-----4---------------------------------
G-------------------------------------------------------

Homecoming, xx xxxxxx,
I'm xxxxxx xxxx.

Repeat CHORUS twice, end with Em Em chord.

 

Tab comments (0)
No comment yet :(
Need help, a tip to share, or simply want to talk about this song? Start the discussion!

You must be logged in to join the discussion
or Register

 

About this song

No information about this song.