Somebody That I Used To Know Uke tab by Gotye

0 Chords used in the song:

Add tab to your SongBook

View these chords for the Baritone

Transpose chords:
Chord diagrams:
Pin chords to top while scrolling
Tablature / ChordsFont size: A- A A+

Don't know how to read a tab or a chord ? Check out these uke lessons:

Detailed guide to strumming and picking
How to read uke tabs
Reading chord diagrams

A/---33--55--7--8--10--7--5-------------/
E/--------------------------------------/
C/--------------------------------------/
G/--------------------------------------/
A/---33--22--00--2----------------------/
E/--------------------------------------/
C/--------------------------------------/
G/--------------------------------------/
A/---33--55--7--8--10--7--5-------------/
E/--------------------------------------/
C/--------------------------------------/
G/--------------------------------------/
A/---33--2--00--567---------------------/
E/--------------------------------------/
C/--------------------------------------/
G/--------------------------------------/
On the last part, 567, slide your finger across 5, 6, and 7 to mimic the xylophone sound.

 

Tab comments (2)
You must be logged in to join the discussion
or Register

 

Hippohcrit avatar
flag for US(ISO2) (Escondido)
Simplified but the last 2 and the 567 didn't quite add up to me. Still a good tab :)
29 Sep 2013
samisacat avatar
it's ok
05 Aug 2013
About this song

This song by Gotye also features vocals by Kimbra. The song was a commercial and critical success, topping the charts in at least 17 countries including Australia, United States, UK, New Zealand, Poland, Germany, France, Belgium and the Netherlands. It was voted #1 on the 2011 Australian Triple J Hottest 100 national music poll. It was the second best selling single of 2011 in Australia. As of March 2012, it had sold 600,000 copies in the UK making it the best-selling single of 2012 so far, and it also became the 3rd best-selling download ever in Germany with digital sales between 500...