Less Talk More Rock Uke tab by Freezepop

Ukulele Tab without chords.

Add tab to your SongBook
Tablature / ChordsFont size: A- A A+

Don't know how to read a tab or a chord ? Check out these uke lessons:

Detailed guide to strumming and picking
How to read uke tabs
Reading chord diagrams

A|-------------------------5-----|
E|-------0-2-0-2-3---3-----------|
C|-2-0-2-------------------------|
G|-----------------2---2-5-------|

A|-------------------------5-7-5-|
E|-------0-2-0-2-3---3-----------|
C|-2-0-2-------------------------|
G|-----------------2---2-5-------|

A|-------------------------5-----|
E|-------0-1-0-1-3---3-----------|
C|-2-0-2-------------------------|
G|-----------------2---2-5-------|

A|-------------------------5-7-5-|
E|-------0-1-0-1-3---3-----------|
C|-2-0-2-------------------------|
G|-----------------2---2-5-------|

A|-------------------------5-----|
E|-------0-2-0-2-3---3-----------|
C|-2-0-2-------------------------|
G|-----------------2---2-5-------|

A|-------------------------5-7-5-|
E|-------0-2-0-2-3---3-----------|
C|-2-0-2-------------------------|
G|-----------------2---2-5-------|

A|-------------------------5-----|
E|-------0-1-0-1-3---3-----------|
C|-2-0-2-------------------------|
G|-----------------2---2-5-------|

A|-------------------------5-7-5-|
E|-------0-1-0-1-3---3-----------|
C|-2-0-2-------------------------|
G|-----------------2---2-5-------|

A|-------------------------7-5---|
E|-----------------5-----1-------|
C|-2---2---0---2-----2-----------|
G|-------------------------------|

A|-------------------------7-5---|
E|-----------------------1-------|
C|-2---2---0---2---0-2-----------|
G|-------------------------------|

A|---------1-----1---------------|
E|--------------------3----------|
C|-0---0-----0-----0-------2-----|
G|-------------------------------|

A|-------------------------7-5---|
E|-----------------------1-------|
C|-2---2---0---2---0-2-----------|
G|-------------------------------|

A|-------------------------7-5---|
E|-----------------5-----1-------|
C|-2---2---0---2-----2-----------|
G|-------------------------------|

A|-------------------------7-5---|
E|-----------------------1-------|
C|-2---2---0---2---0-2-----------|
G|-------------------------------|

A|-------------------------7-5---|
E|-----------------1-----1-------|
C|-2---2---0---2-----2-----------|
G|-------------------------------|
A|-3---3---1---3-1---------1-----|
E|-----------------3---3---------|
D|-------------------------------|
G|-------------------------------|

A|-------------------------5-----|
E|-------0-2-0-2-3---3-----------|
C|-2-0-2-------------------------|
G|-----------------2---2-5-------|

A|-------------------------5-7-5-|
E|-------0-2-0-2-3---3-----------|
C|-2-0-2-------------------------|
G|-----------------2---2-5-------|

A|-------------------------------|
E|---------3-1-3---0-1-3---------|
C|-------------------------------|
G|-5-3-5-3-------3-------3-5-----|

A|-------------------------5-7-5--|
E|-3------------------------------|
C|---2----------------------------|
G|-----0-2-0-4-0-5-0-2-4-5--------|
H ~~~
A|----------7----------7--------7---------------|
E|-5-----5----1--3--1--------1--------6--5------|
C|----------------------------------------------|
G|----5-------------------5--------5------------|

A|-------------------------5-----|
E|-------0-2-0-2-3---3-----------|
C|-2-0-2-------------------------|
G|-----------------2---2-5-------|

A|-------------------------5-7-5-|
E|-------0-2-0-2-3---3-----------|
C|-2-0-2-------------------------|
G|-----------------2---2-5-------|

A|-------------------------------|
E|---------3-1-3---0-1-3---------|
C|-------------------------------|
G|-5-3-5-3-------3-------3-5-----|

A|-------------------------5-7-5--|
E|-3------------------------------|
C|---2----------------------------|
G|-----0-2-0-4-0-5-0-2-4-5--------|
H ~~~
A|----------7----------7--------7---------------|
E|-5-----5----1--3--1--------1--------6--5------|
C|----------------------------------------------|
G|----5-------------------5--------5------------|

A|-------------------------7-5---|
E|-----------------5-----1-------|
C|-2---2---0---2-----2-----------|
G|-------------------------------|

A|-------------------------7-5---|
E|-----------------------1-------|
C|-2---2---0---2---0-2-----------|
G|-------------------------------|

A|---------1-----1---------------|
E|--------------------3----------|
C|-0---0-----0-----0-------2-----|
G|-------------------------------|

A|-------------------------7-5---|
E|-----------------------1-------|
C|-2---2---0---2---0-2-----------|
G|-------------------------------|

A|-------------------------7-5---|
E|-----------------5-----1-------|
C|-2---2---0---2-----2-----------|
G|-------------------------------|

A|-------------------------7-5---|
E|-----------------------1-------|
C|-2---2---0---2---0-2-----------|
G|-------------------------------|

A|-------------------------7-5---|
E|-----------------1-----1-------|
C|-2---2---0---2-----2-----------|
G|-------------------------------|
A|-3---3---1---3-1---------1-----|
E|-----------------3---3---------|
D|-------------------------------|
G|-------------------------------|

A|-------------------------5-----|
E|-------0-2-0-2-3---3-----------|
C|-2-0-2-------------------------|
G|-----------------2---2-5-------|

A|-------------------------5-7-5-|
E|-------0-2-0-2-3---3-----------|
C|-2-0-2-------------------------|
G|-----------------2---2-5-------|

A|-------------------------------|
E|---------3-1-3---0-1-3---------|
C|-------------------------------|
G|-5-3-5-3-------3-------3-5-----|

A|-------------------------5-7-5--|
E|-3------------------------------|
C|---2----------------------------|
G|-----0-2-0-4-0-5-0-2-4-5--------|
H ~~~
A|----------7----------7--------7---------------|
E|-5-----5----1--3--1--------1--------6--5------|
C|----------------------------------------------|
G|----5-------------------5--------5------------|

 

Tab comments (0)
No comment yet :(
Need help, a tip to share, or simply want to talk about this song? Start the discussion!

You must be logged in to join the discussion
or Register

 

About this song

No information about this song.