Capricho Arabe Uke tab by Francisco Tarrega

Ukulele Tab without chords.

Add tab to your SongBook
Tablature / ChordsFont size: A- A A+

Don't know how to read a tab or a chord ? Check out these uke lessons:

Detailed guide to strumming and picking
How to read uke tabs
Reading chord diagrams

P     P    P    P   P        
A|------------------------|-------------------------------|7E|---------------------------|------------------6-5---6-3---|
C|------------------------|------------------------------|
G|---------------------------|-12--9--7--6-9--7------5-------|

A|------------------5-----7-|-0-----------------------|
E|--0---------------3-------|-0-----------------------|
C|--------------------------|-------------------------|
G|------------------3-------|-2-----------------------|
P P P P P
A|------------------------|-------------------------------|7E|---------------------------|------------------6-5---6-3---|
C|------------------------|------------------------------|
G|---------------------------|-12--9--7--6-9--7------5-------|

A|------------------5-----7-|-0-----------------------|
E|--0---------------3-------|-0-----------------------|
C|--------------------------|-------------------------|
G|------------------3-------|-2-----------------------|
s
A|--0-----------------------|------------------------------|
E|------------------0---3---|-6---5------------------------|
C|--------------1-----------|------------------------------|
G|--------------------------|---------9--9------------7----|
A|-------------------------------12------------12---10---8---7-5-4-1-0----------|
E|---------------------------------------------------------------------5-3-2s12--|
C|------------------------------------------------------------------------------|
G|--6----7----9----7----6----3--------5----3------------------------------------|

A|--------------------------||
E|--------------------------||
C|--------------------------||
G|--5---------------4-------||

A|------5-------5-------4---0---4---|-----5-------5-------4---0-------||
E|------1---1-------0-----------3---|-----1---1-------0---------------||
C|--4-------------------------------|-4-------------------------------||
G|------2-------2-------2-------2---|-----2-------2-------2-------2---||
s H P H P
A|--------8-------8---------------0-------|-----8-------8---------------0-------|
E|--1-5---5---5---5-------3-5-6---6-5-6---|-5---5---5---5-------3-5-6---6-5-6---|
C|----4-------5-------4-------------------|-4-------5-------4-------------------|
G|------------------------------5-------5-|---------------------------5-------5-|
P P H P
A|--------8-------8------------0---------|-------5-------0------------------0--------|
E|----5---5---5---5-------4-5------------|-----------------5-------------6--3------|
C|----4-------5-------4------------------|--4---5----------5----4-------------4----|
G|--5--------------------------4-6-7--9--|-10----10--9--7-----------6-9--6--------6--|
P H P H
A|----------------------------0-----7-|-7-----------------------------------|
E|--5----5---5----5-------3-1---1-3---|---1---5---2---5-----5---2-5---------|
C|---4--------5---2---4-------4-------|---4---2-----------2-----------------|
G|------------------------------------|---------------5-------5-----5-8---7-|
H P P P P P P P P P P
A|--------------------7---0---------------------|---0---------------------------5---0---|
E|-------8---6---5---3---6-5------------------|------------------6-5---6-3-0---------|
C|--------------------------------------------|--------------------------------------|
G|--5-7--0-------3-----------7--6-9--7--10--9--|-12--9--7--6-9--7------5---------3-6-2-|

A|------5---1---5-------6---0---4---|-----5---1---5-------6---0---4---||
E|------1-------1---------------0---|-----1-------1---------------0---||
C|--4---------------5---------------|-4---------------5---------------||
G|----------------------0-------2---|---------------------0-------2---||
s H P H P
A|--------8-------8---------------0-------|-----8-------8---------------0-------|
E|--1-5---5---5---5-------3-5-6---6-5-6---|-5---5---5---5-------3-5-6---6-5-6---|
C|----4-------5-------4-------------------|-4-------5-------4-------------------|
G|------------------------------5-------5-|---------------------------5-------5-|
P P H P
A|--------8-------8------------0---------|-------5-------0------------------0--------|
E|----5---5---5---5-------4-5------------|-----------------5-------------6--3------|
C|----4-------5-------4------------------|--4---5----------5----4-------------4----|
G|--5--------------------------4-6-7--9--|-10----10--9--7-----------6-9--6--------6--|
P H P H
A|----------------------------0-----7-|-7-----------------------------------|
E|--5----5---5----5-------3-1---1-3---|---1---5---2---5-----5---2-5---------|
C|---4--------5---2---4-------4-------|---4---2-----------2-----------------|
G|------------------------------------|---------------5-------5-----5-8---7-|
H P P P P P P P P P P
A|--------------------7---0---------------------|---0---------------------------5---0---|
E|-------8---6---5---3---6-5------------------|------------------6-5---6-3-0---------|
C|--------------------------------------------|--------------------------------------|
G|--5-7--0-------3-----------7--6-9--7--10--9--|-12--9--7--6-9--7------5---------3-6-2-|

A|------5---1---5-------6---0---4---|-----5---1---5-------5-------7---||
E|------1-------1---------------0---|-----1-------1---5-----------3---||
C|--4---------------5---------------|-4-----------------------0-------||
G|----------------------0-------2---|---------------------3-------3---||
H P H P H P
A|------8-------8-----5-7---7-------5-7-|-5-7-5-----------------------------------|
E|--3---5-------5---3-----1---1---------|-----3---5-------5---3---3-5-6---6---5-3-|
C|----------0-------------------0-------|-------------0---------------------------|
G|--5-------5-------------------9-5-----|---------5-------5-------------5-5-------|
s H P H P P
A|----0---------------2------7---------7---|-------------3-----------5---5-3-----|
E|--5-----5---1---5-----------1-3-1-------|-3-5-3-----------0---------0---------|
C|--------------------2---2-------9-----2-|-----0---------------0-------------0-|
G|----5---5-------5---10-------------------|---------5-------3-----3---------3---|
H P H P H
A|------8-------8-----5-7---7-------5-7-|-5-7-5-----------------------7-------|
E|--3---5-------5---3-----1---1---------|-----3---5-------5-----6-----3-1-3-6-|
C|----------0-------------------0-------|-------------0-------2-----2---------|
G|--5-------5-------------------9-5-----|---------5-------5-------5-----------|
H P P P s P s P s P
A|--------0---7-------7---0---------5-----|-0-----4-----------0-----7-5-------|
E|--6---6-5-------------------6-3-0-------|0--------0-5---------6-3------0----|
C|-------------------------------------|-----------------------------------|
G|----5-------6-------6-----6---------3-0-|-----2--------6-9------------3-0---|
s s
A|--0-----4---------------0-1-2---------|---------------2-3-4-5-6-7---------||
E|----0-----0-5--5--5--5----------------|-0-1-2---------------------1-2-3-4-||
C|------------------------------0-1-2-3-|-----------------------------------||
G|------2-------------------------------|-------0-1-2-3---------------------||
H P H P H P
A|-------------------------------------------|--------------------------7--------0-------|
E|--5----5---5----5-----------------5-5------|---------55-------5---------2-3-5--3---2---|
C|---4---2----6---2---4----------------------|-----4--------6---2---4------------------4-|
G|----------------------4-6-7--6-7-------4-6-|-4-6-4-------------------------------------|
s H P s s P
A|---------------------------4-5-7-5---4---|-4-0---------------0---------------|
E|--2-5----5-------5---------------0-------|-------0-------0-------4-5-----3-0-|
C|-----4-------6-------6-------------------|---4-------1-----------------------|
G|-------------7-----------4-------------4-|-----------2---------------6-4-----|
s H P H P H H
A|---------------------------------------------|----------------------------------------|
E|--2-5----5---5----5-----------------5-5------|---------5--------5-------5------2-5----|
C|-----4---2----6---2---4----------------------|-----4----2---6---2---3-6------3--------|
G|------------------------4-6-7--6-7-------4-6-|-4-6-4----------------------5---------5-|
s s P s P s P P P
A|------------------------------------|50--5-4-4---------------------7-------------------------
E|----------5---------------------4-0---|-------------5--5--3-3-2-2------------------6-6-5-5-5--|
C|--4---4-------4-----------------------|-----------------------------4-2-2---------------------|
G|--6-----------------11--9--7--4--------|-------4--4------------------------6-6--4-4------------|
H P H P H P
A|-------------------------------------------|--------------------------7--------0-------|
E|--5----5---5----5-----------------5-5------|---------55-------5---------2-3-5--3---2---|
C|---4---2----6---2---4----------------------|-----4--------6---2---4------------------4-|
G|----------------------4-6-7--6-7-------4-6-|-4-6-4-------------------------------------|
s H P s s P
A|---------------------------4-5-7-5---4---|-4-0---------------0---------------|
E|--2-5----5-------5---------------0-------|-------0-------0-------4-5-----3-0-|
C|-----4-------6-------6-------------------|---4-------1-----------------------|
G|-------------7-----------4-------------4-|-----------2---------------6-4-----|
s H P H P P s
A|---------------------------------------------|----------------------------5-----------|
E|--2-5----5---5----5-----------------5-5------|---------5--------5-----2-----2-5-------|
C|-----4---2----6---2---4----------------------|-----4----2---6---2---2-----------------|
G|------------------------4-6-7--6-7-------4-6-|-4-6-4--------------------2-------9---7-|
H P s H P
A|-------------2-------2-----2-4-5--------4--|-0---------9-------0-------7-------|
E|-------------0---5---0-----------5--------|----5---3--5---------------3-------|
C|-------------------------6----------------|-7---------------------------------|
G|--7--9--70------------------------------4-|-4-------------------------6-------|

A|--5-------2---5-------2---0---4---|-----5---1---5-------6---0---4---|
E|------2-------1---5---0-----------|-----1-------1---------------0---|
C|--4-------------------------------|-4---------------5---------------|
G|------2---------------0-------0---|---------------------0-------2---|
s H P H P
A|--------8-------8---------------0-------|-----8-------8---------------0-------|
E|--1-5---5---5---5-------3-5-6---6-5-6---|-5---5---5---5-------3-5-6---6-5-6---|
C|----4-------5-------4-------------------|-4-------5-------4-------------------|
G|------------------------------5-------5-|---------------------------5-------5-|
P P H P
A|--------8-------8------------0---------|-------5-------0------------------0--------|
E|----5---5---5---5-------4-5------------|-----------------5-------------6--3------|
C|----4-------5-------4------------------|--4---5----------5----4-------------4----|
G|--5--------------------------4-6-7--9--|-10----10--9--7-----------6-9--6--------6--|
P H P s
A|----------------------------0-----7-|-5-----------------------------------|
E|--5----5---5----5-------3-1---1-3---|---1---5---2---5-----5---2-5---------|
C|---4--------5---2---4-------4-------|---4---2-----------2-----------------|
G|------------------------------------|---------------5-------5-----5-8---7-|
H P P P P P P P P P P
A|--------------------7---0---------------------|---0---------------------------5---0---|
E|-------8---6---5---3---6-5------------------|------------------6-5---6-3-0---------|
C|--------------------------------------------|--------------------------------------|
G|--5-7--0-------3-----------7--6-9--7--10--9--|-12--9--7--6-9--7------5---------3-6-2-|

A|------5---1---5-------6---0---4---|-----5---1---5-------6---0---4---|
E|------1-------1---------------0---|-----1-------1---------------0---|
C|--4---------------5---------------|-4---------------5---------------|
G|----------------------0-------2---|---------------------0-------2---|

A|--------------------7-------------||
E|-------------------------------------||
C|-----------------2--5------------||
G|--------------------7----------------||

 

Tab comments (1)
You must be logged in to join the discussion
or Register

 

pmiguelpl avatar
flag for PH(ISO2) (legazpi)
can i play this on a high g?
13 May 2018
About this song

No information about this song.