One Thing (12 Fret Version) Uke tab by Finger Eleven

Ukulele Tab without chords.

Add tab to your SongBook
Tablature / ChordsFont size: A- A A+

Don't know how to read a tab or a chord ? Check out these uke lessons:

Detailed guide to strumming and picking
How to read uke tabs
Reading chord diagrams

# This is the 12 fret version of my original "One Thing" tab
# also here on Ukulele-Tabs.com. If your ukulele happens to have
# at least 16 frets, I encourage you to use my original tab as
# the notes there better replicate the actual notes being played
# in the song. However, this tab still sounds pretty good, and
# is a little easier to play, so I hope you enjoy playing it.

# Also, note that the Ab Ab chord I use in this tab (A A:3, E E:4, C C:3,
# G G:1) is a little different than the one listed above but
# either is acceptable and I encourage you to use whichever one
# you prefer.

A||--3------------3--------|--0------------0--------|
E||o------3----------3-----|-------3----------3-----|
C||o-0-------0----------0--|--0-------0----------0--|
G||------------------------|------------------------|

# (6x)
|--8------------8--------|--3----------------||
|-------5----------5-----|------------------o||
|--7-------7----------7--|--0---------------o||
|------------------------|-------------------||


||--3------3--3--3--3----|----3--3--3--3----3--3--|
||o-4------4--4--4--4----|----4--4--4--4----4--4--|
||o-3------3--3--3--3----|----3--3--3--3----3--3--|
||--1------1--1--1--1----|----1--1--1--1----1--1--|


|--3------3--3--3--3----|----3--3--3--3----3--3--|
|--4------4--4--4--4----|----4--4--4--4----4--4--|
|--3------3--3--3--3----|----3--3--3--3----3--3--|
|--1------1--1--1--1----|----1--1--1--1----1--1--|


|--4------4--4--4--4----|----------4----4--4--|
|--1------1--1--1--1----|----------1----1--1--|
|--1------1--1--1--1----|----------1----1--1--|
|--1------1--1--1--1----|----------1----1--1--|

# (2x)
|--4------4--4--4--4----|-------4--4--4----4--4--||
|--1------1--1--1--1----|-------1--1--1----1--1-o||
|--1------1--1--1--1----|-------1--1--1----1--1-o||
|--1------1--1--1--1----|-------1--1--1----1--1--||


||--3------------3--------|--0------------0--------|
||o------3----------3-----|-------3----------3-----|
||o-0-------0----------0--|--0-------0----------0--|
||------------------------|------------------------|

# (2x)
|--8------------8--------|--3----------------||
|-------5----------5-----|------------------o||
|--7-------7----------7--|--0---------------o||
|------------------------|-------------------||


||--3------3--3--3--3----|----3--3--3--3----3--3--|
||o-4------4--4--4--4----|----4--4--4--4----4--4--|
||o-3------3--3--3--3----|----3--3--3--3----3--3--|
||--1------1--1--1--1----|----1--1--1--1----1--1--|

|--3------3--3--3--3----|----3--3--3--3----3--3--|
|--4------4--4--4--4----|----4--4--4--4----4--4--|
|--3------3--3--3--3----|----3--3--3--3----3--3--|
|--1------1--1--1--1----|----1--1--1--1----1--1--|

|--4------4--4--4--4----|----------4----4--4--|
|--1------1--1--1--1----|----------1----1--1--|
|--1------1--1--1--1----|----------1----1--1--|
|--1------1--1--1--1----|----------1----1--1--|

# (2x)
|--4------4--4--4--4----|-------4--4--4----4--4--||
|--1------1--1--1--1----|-------1--1--1----1--1-o||
|--1------1--1--1--1----|-------1--1--1----1--1-o||
|--1------1--1--1--1----|-------1--1--1----1--1--||


||--3------------3--------|--0------------0--------|
||o------3----------3-----|-------3----------3-----|
||o-0-------0----------0--|--0-------0----------0--|
||------------------------|------------------------|

# (4x)
|--8------------8--------|--3----------------||
|-------5----------5-----|------------------o||
|--7-------7----------7--|--0---------------o||
|------------------------|-------------------||


||--3------3--3--3--3----|----3--3--3--3----3--3--|
||o-4------4--4--4--4----|----4--4--4--4----4--4--|
||o-3------3--3--3--3----|----3--3--3--3----3--3--|
||--1------1--1--1--1----|----1--1--1--1----1--1--|

|--3------3--3--3--3----|----3--3--3--3----3--3--|
|--4------4--4--4--4----|----4--4--4--4----4--4--|
|--3------3--3--3--3----|----3--3--3--3----3--3--|
|--1------1--1--1--1----|----1--1--1--1----1--1--|

|--4------4--4--4--4----|----------4----4--4--|
|--1------1--1--1--1----|----------1----1--1--|
|--1------1--1--1--1----|----------1----1--1--|
|--1------1--1--1--1----|----------1----1--1--|

# (3x)
|--4------4--4--4--4----|-------4--4--4----4--4--||
|--1------1--1--1--1----|-------1--1--1----1--1-o||
|--1------1--1--1--1----|-------1--1--1----1--1-o||
|--1------1--1--1--1----|-------1--1--1----1--1--||

 

Tab comments (1)
You must be logged in to join the discussion
or Register

 

panda2 avatar
flag for SY(ISO2) (Damascus)
well done, i like it!
26 Nov 2009
About this song

No information about this song.