Fried Noodles (Solo) Uke tab by Filthy Frank

Ukulele Tab without chords.

Add tab to your SongBook
Tablature / ChordsFont size: A- A A+

Don't know how to read a tab or a chord ? Check out these uke lessons:

Detailed guide to strumming and picking
How to read uke tabs
Reading chord diagrams

I live in a constant state of fear and misery.

A|----2--0--2--3--2--0-----0--2----------------|
E|----------------------3---------0--3--|
C|-2---------------------------------------|
G|-----------------------------------------|

Do you miss me anymore?

A|--0--2-----------5--2--------------------|
E|--------0--3--3-------------------------|
C|----------------------------------------|
G|----------------------------------------|

And I don’t even notice when it hurts anymore.

A|-----0--2--3--5--7--5--2-----0--0--2-|
E|--3-----------------------3----------0|
C|----------------------------------------|
G|----------------------------------------|

Anymore, anymore, anymore.

A|------0--0--0--0--0--2--0--------------|
E|0--0-----------------------3------------|
C|----------------------------------------|
G|----------------------------------------|

 

Tab comments (2)
You must be logged in to join the discussion
or Register

 

Alzen383 avatar
flag for US(ISO2) (Naga)
it sounds just fine though, if you play it quicker in that part
16 Feb 2019
hellaghosts avatar
i find it better to just skip the 3 on the A string in "i dont even notice when it hurts anymore"
31 May 2018
About this song

No information about this song.