Bailando Uke tab by Enrique Iglesias

Ukulele Tab without chords.

Add tab to your SongBook
Tablature / ChordsFont size: A- A A+

Don't know how to read a tab or a chord ? Check out these uke lessons:

Detailed guide to strumming and picking
How to read uke tabs
Reading chord diagrams

A-------------------------------------------------------------
E--0-2-3-2-0-3--2-3-2-0--0-2-3-2-0-3-------------------3-3-2--
C-------------------------------------2-2-2--0-2--0-2---------
G-------------------------------------------------------------


A-----0-2-0-2-----2-0-----3-2-3--5-3-2-3-2-0------------------
E--3-----------3-------2----------------------3-2-2-----------
C-------------------------------------------------------------
G-------------------------------------------------------------


A--2-2-2-2-2-2-3-3--2-2-2-2-2-2-0-0--2-2-2-2-2-5-5-3----------
E-------------------------------------------------------------
C-------------------------------------------------------------
G-------------------------------------------------------------


A--3-5-5-2-2-0-2-0-2-0-0--5--5--3-2-3--5-5--7-5-3-------------
E-------------------------------------------------------------
C-------------------------------------------------------------
G-------------------------------------------------------------


A-----3-2-----3-2-----3-2-----3-2-----0-0---------------------
E--3-------3-------3-------3-------3-------3-2----------------
C-------------------------------------------------------------
G-------------------------------------------------------------


A--2-2-2-2-2-2-0-------2-2-2-2-2-2-0-------2-2-2-2-2-2-0------
E-----------------0-0-----------------0-0---------------------
C-------------------------------------------------------------
G-------------------------------------------------------------


A--2-2-2--0-0-------------------------------------------------
E--------------3-3-3--2-2--0-2-3-2-0--0-0--0-2-3-2-0--0-0-----
C-------------------------------------------------------------
G-------------------------------------------------------------


A------------------3-3-3--3-2--2-2-2--0-0--2-2-2-7-7-7--------
E--0-2-3-2-0--0-0---------------------------------------------
C-------------------------------------------------------------
G-------------------------------------------------------------


A--2-2-2-7-7-7--2-2-2-7-7-7--7-7-7-5-5-2--7-7-7-5-5-0---------
E-------------------------------------------------------------
C-------------------------------------------------------------
G-------------------------------------------------------------


A---------10-7------7--------10-7------7-10-10---------10-9---
E--7--10--------10-----7-10--------10-----------10-10---------
C-------------------------------------------------------------
G-------------------------------------------------------------

 

Tab comments (1)
You must be logged in to join the discussion
or Register

 

ukeluv8 avatar
Provecho! Me gusta esta canción.
12 Jul 2017
About this song

No information about this song.