Petti Fyri Petti Uke tab by Eivør

5 Chords used in the song: D, Cmaj7, Am, Em, Gmaj7

Add tab to your SongBook
Tablature / ChordsFont size: A- A A+

Don't know how to read a tab or a chord ? Check out these uke lessons:

Detailed guide to strumming and picking
How to read uke tabs
Reading chord diagrams

#     As you can see, in the tab on the end and somewhere in the middle there is this symbol
#
# || ||
# || * * ||
# || * * ||
# || ||
#
# It means, that after finshing (passing through the second symbol, on the right), you should start again from the first symbol (on the left)
#
#

G G G G Gmaj7 Gmaj7 Gmaj7 Gmaj7 (D D)

A|--2----2-----2--2-|-2-----2-----2---2-|--2---2----2--2--|-2----2-----0-----|
E|-----3-------------|----3--------------|-----2------------|----------2--------|
C|----------2--------|----------2--------|---------2--------|----2----------2---|
G|-------------------|--------------------|------------------|-------------------|


Em Em Em Em Gmaj7 Gmaj7 Gmaj7 Gmaj7 (D D)

A|--2----2-----2--2--|--2----2------2-----|--2----2----2--2-|--2---2-----0------|
E|-----3--------------|-----------3--------|-----2-------------|---------2---------|
C|----------4---------|----4------------4--|----------2-------|----2----------2---|
G|--------------------|---------------------|-------------------|-------------------|



Tá tú ert noer eri eg

G G G G Gmaj7 Gmaj7 Gmaj7 Gmaj7 (D D)

A||---2----2-----2--2-|-2-----2-----2---2-|--2---2--2--2----|-2----2-----2-----|
E||-*----3-------------|----------3--------|-----2----------2-|----------2--------|
C||-*---------2--------|----2--------------|------------------|----2----------2---|
G||--------------------|--------------------|------------------|-------------------|



Na - kin

Em Em Em Em Gmaj7 Gmaj7 Gmaj7 Gmaj7 (D D)

A|--2----2-----2--2--|--2----2------2-----|--2----2----2--2-|--2---2-----0------|
E|-----3--------------|-----------3--------|-----2-------------|---------2---------|
C|----------4---------|----4------------4--|----------2-------|----2----------2---|
G|--------------------|---------------------|-------------------|-------------------|




F Fái eí fjalt míní

G G G G Gmaj7 Gmaj7 Gmaj7 Gmaj7 (D D)

A|--2----2-----2--2-|-2-----2-----2---2-|--2---2--2--2----|-2----2-----2-----|
E|-----3-------------|----------3--------|-----2----------2-|----------2--------|
C|----------2--------|----2--------------|------------------|----2----------2---|
G|-------------------|--------------------|------------------|-------------------|



arr Tú

C C (Cmaj7 Cmaj7)

A|--3----3-----3--2-|-3-----3-----3-----|--3---3----3--2--|-3----3-----3-----|
E|-----3----0--------|----0-----3-----0--|----3----0-------|----0-----3-----0-|
C|-------------------|--------------------|------------------|-------------------|
G|-------------------|--------------------|------------------|-------------------|



lí - mar meg - saman petti fyri petti

Am Am Em Em Am Am Em Em

A|-----------3-------|-2-----2--2---------|----------3-------|-2----2--2---------|
E|--5--5--------5----|---3--------3-------|--5--5------5-----|---3-------3------|
C|--------4-------4--|----------------4---|--------4------4--|--------------4----|
G|-------------------|--------------------|-------------------|--------------------|



Til einki er eftir

Gmaj7 Gmaj7 Am Am Gmaj7 Gmaj7 Gmaj7 Gmaj7

A|--2----2--2--------|----------------3--|----------------3--|----------------3--|-------------------|
E|-----2--------2----|--5---5--5--5-----| --5---5--5--5-----|--5---5--5--5-----|--5----------------|
C|----------------2--|----4--------------|----4--------------|----4--------------|-------------------|
G|-------------------|--------------------|-------------------|-------------------|-------------------|



Brotið.

G G G G Gmaj7 Gmaj7 Gmaj7 Gmaj7 (D D)

A|--2----2-----2--2-|-2-----2-----2---2-|--2---2----2--2--|-2----2-----0-----|
E|-----3-------------|----3--------------|-----2------------|----------2--------|
C|----------2--------|----------2--------|---------2--------|----2----------2---|
G|-------------------|--------------------|------------------|-------------------|


Em Em Em Em Gmaj7 Gmaj7 Gmaj7 Gmaj7 (D D)

A|--2----2-----2--2--|--2----2------2-----|--2----2----2--2-|--2---2-----0-------||
E|-----3--------------|-----------3--------|-----2-------------|---------2--------*-||
C|----------4---------|----4------------4--|----------2-------|----2----------2--*-||
G|--------------------|---------------------|-------------------|--------------------||

 

Tab comments (0)
No comment yet :(
Need help, a tip to share, or simply want to talk about this song? Start the discussion!

You must be logged in to join the discussion
or Register

 

About this song

No information about this song.