Perfect Uke tab by Ed Sheeran

Ukulele Tab without chords.

8.7/10
PrintAdd tab to your SongBook

Tablature / Chords (Full Song)

Font size: A- A A+

Artist: 
Album: 
Year:  2017
Key: unknownTablature (no chords)
A|-------2-2-0----2-2-0----3-2----0-2-0--|
E|-0-3-3-3------3-3------3-3-3-3------2--|
C|-------2--------4--------0-0-0------2--|
G|-------0--------0--------0-0-0------2--|



A|-2-0---2-3/5-2-0---2----0-2-3-2-0----0-2-0--|
E|-----3-3---------3-3-3------3-3-3-3------2--|
C|-------2-----------4--------0-0-0-0------2--|
G|-------0-----------0--------0-0-0-0------2--|



A|-5-7-2-0-2-2-0---2-2-0---3-3-2-0---2-2-3-2-0--|
E|-2-------3-----3-3-----3-3-------0-3-------2--|
C|-2-------2-------4-------0---------2-------2--|
G|-2-------0-------0-------0---------0-------2--|



A|-2-0-2-2-0---2-2-0---3-3-2-0---0-2-0--|
E|-----3-----3-3-----3-3-------3-----2--|
C|-----2-------4-------0-------------2--|
G|-----0-------0-------0-------------2--|



A|-5/7-2-2-10-9-7-0-2---0-2-5-3-2-0-2--|
E|-------3--7---7---3-3-----2-------3--|
C|-------4--7---7---2-------2-------4--|
G|-------0--0---0---0-------2-------0--|

⇢ Not happy with this tab? View 16 other version(s)

Uke tab by , 16 Apr 2019

Tab comments (2)

Something to say?
Share your strumming patterns, chords or tips to play this tab! ;)
Filter by:
dnnkl avatar
beautiful :)
04 Aug 2019
Comment
catacarballo avatar
falta parte de la cancion, ya que vi el video de youtube de el tutorial, pero igual esta muy bien
19 Apr 2019
Comment

Top Tabs & Chords by Ed Sheeran, don't miss these songs!

About this song: Perfect

No information about this song.

Did you cover Perfect on your Ukulele? Share your work!
Submit a cover