Homage For Satan Uke tab by Deicide

Ukulele Tab without chords.

10/10
PrintAdd tab to your SongBook

Tablature / Chords (Full Song)

Font size: A- A A+

Artist: 
Album:  unknown
Key: unknownTablature (no chords)
Intro
A|------------------------------------|------------------------------------|
E|-6----------------6-7-9-10-6-7-9-10-|-6----------------6-7-10-9-6-7-10-9-|
C|-3333333333333333-3-4-6-7--3-4-6-7--|-3333333333333333-3-4-7--6-3-4-7--6-|
G|------------------------------------|------------------------------------|

A|------------------------------------|------------------------------------|
E|-6----------------6-7-9-10-6-7-9-10-|-6----------------10-9-6-7-10-9-6-7-|
C|-3333333333333333-3-4-6-7--3-4-6-7--|-3333333333333333-7--6-3-4-7--6-3-4-|
G|------------------------------------|------------------------------------|

Verse 1
A|------------------------------------|------------------------------------|
E|-6----------------6-7-9-10-6-7-9-10-|-6----------------6-7-10-9-6-7-10-9-|
C|-3333333333333333-3-4-6-7--3-4-6-7--|-3333333333333333-3-4-7--6-3-4-7--6-|
G|------------------------------------|------------------------------------|

A|------------------------------------|------------------------------------|
E|-6----------------6-7-9-10-6-7-9-10-|-6----------------10-9-6-7-10-9-6-7-|
C|-3333333333333333-3-4-6-7--3-4-6-7--|-3333333333333333-7--6-3-4-7--6-3-4-|
G|------------------------------------|------------------------------------|

Chorus
A|-----------------------------------------------------------|
E|-----------------------------------------------------------|
C|-999999999999912121288888888888881010107777777777777101010-|
G|-----------------------------------------------------------|

A|--------------------------------------------------|
E|--------------------------------------------------|
C|-666666444444666666777777777774444444444444444444-|
G|--------------------------------------------------|

A|--------------------------------------------------|
E|--------------------------------------------------|
C|-777777999999777777666666666663333333333333333333-|
G|--------------------------------------------------|

A|--------------------------------------------------|
E|--------------------------------------------------|
C|-666666444444666666777777777774444444444444444444-|
G|--------------------------------------------------|

A|--------------------------|
E|--------------------------|
C|-777777999999777777666666-|
G|--------------------------|

Verse 2
A|------------------------------------|------------------------------------|
E|-6----------------6-7-9-10-6-7-9-10-|-6----------------6-7-10-9-6-7-10-9-|
C|-3333333333333333-3-4-6-7--3-4-6-7--|-3333333333333333-3-4-7--6-3-4-7--6-|
G|------------------------------------|------------------------------------|

A|------------------------------------|------------------------------------|
E|-6----------------6-7-9-10-6-7-9-10-|-6----------------10-9-6-7-10-9-6-7-|
C|-3333333333333333-3-4-6-7--3-4-6-7--|-3333333333333333-7--6-3-4-7--6-3-4-|
G|------------------------------------|------------------------------------|

Uke tab by , 18 Aug 2018

Tab comments (1)

Something to say?
Share your strumming patterns, chords or tips to play this tab! ;)
Filter by:
albertabraden384 avatar
Confidence is such an attractive quality. Tonight, I want to explore yours a little closer, with a touch that ignites a desire for something we can explore together. f1nd me on albertabraden_mooo_com change _ to dot
15 Jul 2024
Comment

About this song: Homage For Satan

No information about this song.

Did you cover Homage For Satan on your Ukulele? Share your work!
Submit a cover