A Lack Of Colour Uke tab by Death Cab For Cutie

4 Chords used in the song: B, B/C, C#m, A

Add tab to your SongBook
Tablature / ChordsFont size: A- A A+

Don't know how to read a tab or a chord ? Check out these uke lessons:

Detailed guide to strumming and picking
How to read uke tabs
Reading chord diagrams

Dathcap For Cutie-   Lack Of Color

My First Tab. Have fun with it!

A|----------------------------------------------------|
E|--0--0--0--0--0--0--0--0--0--0--0--0--0--0--0--0----|
C|----8--8--8--8--8--4--4--4--8--8--8--8--8--6--6--4--|
G|----------------------------------------------------|

A|----7--7--7--7--7--2--2--2-----------7--2--2--2-----|
E|----------------------------5--5--5-----------------|
C|--1--1--1--1--1--1--1--1--1--1--1--1--1--1--1--1----|
G|----------------------------------------------------|


And when i see you
I really see you upside down
But my brain knows better
It picks you up and turns you around
Turns you around, turns you around

If you feel discouraged
That theres a lack of color here
Please dont worry lover
Its really bursting at the seems
Absorbing everything
The spectrums a to z

This fact not fiction
For the first time in years
And all the girls in every girlie magazine
Cant make me feel any less alone
Im reaching for the phone

B B B/C B/C
To call at 7:03
C#m C#m B B A A
and on your machine I slur a plea for you to come home
B B B/C B/C
But i know its too late
C#m C#m B B A A
I should have given you a reason to stay
C#m C#mB B A A
Given you a reason to stay [x3]


This is fact not fiction
For the first time in years

Chords:
BB/CC#m A A
A|-----2------3------4------0----|
E|-----2------2------4------0----|
C|-----3------3------4------1----|
G|-----4------5------1------2----|

 

Tab comments (3)
You must be logged in to join the discussion
or Register

 

luna264 avatar
yeeaaah this shouldn't have been approved..this tab is no bueno.
16 Dec 2014
beccy52 avatar
there's an easier way to play this... it helps when it's in the right key too. :/
14 Jan 2012
Awright122 avatar
flag for IS(ISO2) (Kennebunk)
The G fret 1 and A fret 7 is tricky on anything but a Soprano, otherwise it's decent.
04 Jan 2010
About this song

No information about this song.