Crossroads Uke tab by Cream

4 Chords used in the song: A, D7, E, D

Rate song!
PrintAdd tab to your SongBook

Tablature / Chords (Full Song)

Font size: A- A A+

Artist: 
Year:  1995
Difficulty: 
4.25
(Intermediate)
Key: A, F#m, GbmChords and Tablature
# This is a twelve bar blues in A.  Use the A blues scale to solo.  You can play the 12 bar intro 
# over the whole song or use the chord patterns followed by the A A riff.
# A A riff is the first bar of the intro. I like to hammer on to the last A A note in the riff.
# Tabbed by Rob Scroope.

Intro:
A A
A|--0---------------------------------|
E|------------------------------------| X2
C|------------------------------------|
G|----2--0--2--0--2--0--5b6-----------|

A A
A|--0---------------------------------|
E|------------------------------------| X2
C|----1-----1-------------------------|
G|----2--0--2--0--2--0--5b6-----------|

D7 D7
A|------------------------------------|
E|------------------------------------| X2 improvise
C|------------------------------------|
G|------------------------------------|

A A
A|--0---------------------------------|
E|------------------------------------| X2
C|------------------------------------|
G|----2--0--2--0--2--0--5b6-----------|

E E
A|--2--2--4--2--2--4------------------|
E|--0--0--0--0--0--0------------------| X1
C|------------------------------------|
G|------------------------------------|

D D
A|------------------------------------|
E|--5--5--7--5--5--7------------------| X1
C|--2--2--2--2--2--2------------------|
G|------------------------------------|

A A
A|------------------------------------|
E|------------------------------------| X1
C|--4--4--6--4--4--6------------------|
G|--2--2--2--2--2--2------------------|

E E
A|--2--2--4--2--2--4------------------|
E|--0--0--0--0--0--0------------------| X1
C|------------------------------------|
G|------------------------------------|


# Chord patterns for the verses:
A A chord
A|------------------------------------|
E|------------------------------------|
C|--4--4--6--4--4--6------------------|
G|--2--2--2--2--2--2------------------|

D D chord
A|------------------------------------|
E|--5--5--7--5--5--7------------------|
C|--2--2--2--2--2--2------------------|
G|------------------------------------|

E E chord
A|--2--2--4--2--2--4------------------|
E|--0--0--0--0--0--0------------------|
C|------------------------------------|
G|------------------------------------|

Intro:
A A | A A | A A | A A | D D | D D | A A | A A | E E | D D | A A | E E

A A | D D | A A riff | A A riff
I went ...

D D | D D | A A riff | A A riff
Down to ...

E E | D D | A A riff | A A riff
Asked the ...

A A | D D | A A riff | A A riff
I went ...

D D | D D | A A riff | A A riff
Down to ...

E E | D D | A A riff | A A riff
Nobody seemed ...

A A | D D | A A riff | A A riff
Well I'm ...

D D | D D | A A riff | A A riff
Going down ...

E E | D D | A A riff | A A riff
You can ...

SOLO:
A A | A A | A A | A A | D D | D D | A A | A A | E E | D D | A A | A A
A A | A A | A A | A A | D D | D D | A A | A A | E E | D D | A A | A A

A A | D D | A A riff | A A riff
Going down ...

D D | D D | A A riff | A A riff
Going down ...

E E | D D | A A riff | A A riff
You can ...

SOLO:
A A | A A | A A | A A | D D | D D | A A | A A | E E | D D | A A | A A
A A | A A | A A | A A | D D | D D | A A | A A | E E | D D | A A | A A
A A | A A | A A | A A | D D | D D | A A | A A | E E | D D | A A | A A

A A | D D | A A riff | A A riff
You can ...

D D | D D | A A riff | A A riff
Run, you ...

E E | D D | A A riff | A A riff
And I'm ...

⇢ Not happy with this tab? View 2 other version(s)

Uke tab by , 22 Feb 2014

Tab comments (0)

No comment yet :(
Need help, a tip to share, or simply want to talk about this song? Start the discussion!

Something to say?
Share your strumming patterns, chords or tips to play this tab! ;)

Top Tabs & Chords by Cream, don't miss these songs!

About this song: Crossroads

No information about this song.

Did you cover Crossroads on your Ukulele? Share your work!
Submit a cover