Candy Land Uke tab by Cocorosie

Ukulele Tab without chords.

Add tab to your SongBook
Tablature / ChordsFont size: A- A A+

Don't know how to read a tab or a chord ? Check out these uke lessons:

Detailed guide to strumming and picking
How to read uke tabs
Reading chord diagrams

|--5-----5-----5-----5-----6-----6-----8-----6----
|-----6-----6-----6-----6-----6-----6-----6-----6-
|--------7-----------7-----------7-----------7----
|-------------------------------------------------

---3-----3-----3-----3-----5-----5-----5-----3----
------5-----5-----5-----5-----5-----5-----5-----5-
---------5-----------5-----------5-----------5----
--------------------------------------------------

---1-----1-----1-----1-----1-----1-----1-----1----
------3-----3-----3-----3-----1-----1-----1-----1-
---------3-----------3-----------2-----------2----
--------------------------------------------------

---3-----3-----3-----3-----5-----5-----5--3--1--0-
------5-----5-----5-----5-----5-----5-------------
---------5-----------5-----------5----------------
--------------------------------------------------

---1-----1-----1-----1-----1-----1-----1-----1----
------3-----3-----3-----3-----1-----1-----1-----1-
---------3-----------3-----------2-----------2----
--------------------------------------------------

---3-----3-----3-----3-----5-----5-----8-----6----
------5-----5-----5-----5-----5-----5-----5-----5-
---------5-----------5-----------5----------------
--------------------------------------------------

---5-----5-----5-----5-----6-----6-----8-----6----
------6-----6-----6-----6-----6-----6-----6-----6-
---------7-----------7-----------7-----------7----
--------------------------------------------------

---3-----3-----3-----3-----5-----5-----5--3--1--0-|
------5-----5-----5-----5-----5-----5-------------|
---------5-----------5-----------5----------------|
--------------------------------------------------|

 

Tab comments (2)
You must be logged in to join the discussion
or Register

 

eugelasso avatar
flag for AR(ISO2) (Buenos Aires)
I love you.
04 Nov 2012
Sara.algo avatar
very good
14 Jan 2012
About this song

No information about this song.