Spaceland Uke tab by Chloe Moriondo

6 Chords used in the song: Cmaj7,Am7,Bm,C,Cm,Am

Add tab to your SongBook
Tablature / ChordsFont size: A- A A+

Don't know how to read a tab or a chord ? Check out these uke lessons:

Detailed guide to strumming and picking
How to read uke tabs
Reading chord diagrams

A|2---------2---2---0------|--2----------------------|
E|0------------------------|--2----------------------|
C|0------------------------|--2----------------------|
G|0---------------------0--|--4----------------------|

[Verse 1]
Cmaj7 Cmaj7 Am7 Am7 Bm Bm
Sometimes overthinking can feel like more than overthinking
Cmaj7 Cmaj7 Am7 Am7 Bm Bm
It's like I'm trapped in spaceland and I'm not coming back
Cmaj7 Cmaj7 Am7 Am7 Bm Bm
Sometimes when I'm floating it feels like my head's overflowing
Cmaj7 Cmaj7 Am7 Am7 Bm Bm
And it's not too difficult to detach, but it's hard to come back

[Chorus]
Cmaj7 Cmaj7 Am7 Am7 Bm Bm Cmaj7 Cmaj7 Am7 Am7 Bm Bm
I'm losing touch, I'm not enough
Cmaj7 Cmaj7 Am7 Am7 Bm Bm Cmaj7 Cmaj7 C C Cm Cm Cmaj7 Cmaj7
I'm losing touch, I'm not enough for them

A|2---------2---2---0------|--2----------------------|
E|0------------------------|--2----------------------|
C|0------------------------|--2----------------------|
G|0---------------------0--|--4----------------------|

[Verse 2]
Cmaj7 Cmaj7 Am7 Am7 Bm Bm
The ceiling's spinning and I think god is winning
Cmaj7 Cmaj7 Am7 Am7 Bm Bm
'Cause I see my hands shaking and I cannot make them stop
Cmaj7 Cmaj7 Am7 Am7 Bm Bm
Fish swim so quickly, I feel so fucking guilty
Cmaj7 Cmaj7
And I miss all of my friends
Am7 Am7 Bm Bm
Please, where did they go?

[Chorus]
Cmaj7 Cmaj7 Am7 Am7 Bm Bm Cmaj7 Cmaj7 Am Am Bm Bm
I'm losing touch, I'm not enough
Cmaj7 Cmaj7 Am7 Am7 Bm Bm Cmaj7 Cmaj7 C C Cm Cm Cmaj7 Cmaj7
I'm losing touch, I'm not enough for them

A|2---------2---2---0------|--2----------------------|
E|0------------------------|--2----------------------|
C|0------------------------|--2----------------------|
G|0---------------------0--|--4----------------------|

 

Tab comments (2)
You must be logged in to join the discussion
or Register

 

katiefaye avatar
flag for US(ISO2) (Darien)
the tab is missing a couple of notes
02 Dec 2019
imthebundun avatar
Really good! The tab is accurate and the notes are too! What would be great is if there was the tab for the 2nd line cause it goes a bit higher at the last notes. Besides that its really good!
27 Sep 2019
About this song

No information about this song.