Aqui No Es Asi Uke tab by Caifanes

7 Chords used in the song: A#, F, Gm, Dm, C, G, D

10/10
PrintAdd tab to your SongBook

Tablature / Chords (Full Song)

Font size: A- A A+

Artist: 
Year:  1994
Difficulty: 
4.07
(Intermediate)
Key: unknownChords and Tablature
A ---------------------------------------------------
E ---------------------1-3-3-1-3-----------------1-1-
C 2-2-2-2-------2-2-----------------2-2-2-2---------2
G --------5-5-5-----5-3---3-----3-----------5-5-5----

A ----------------------------------------------------
E ---------------------1-3-3-1-3---------------5-6-5-3
C 2-2-2-2-------2-2-----------------2-2-2-2-----------
G --------5-5-5-----5-3---3-----3-----------5-5-------

A# A# F F Gm Gm A# A# F F Gm Gm
Vienes caminando y no sabes tu destino
A# A# F F Gm Gm A# A# F F Gm Gm
conquistando suenios suenias llegar a ser deidad
A# A# F F Gm Gm A# A# F F Gm Gm
Sigues caminando sobre viejos territorios
A# A# F F Gm Gm A# A# F F Gm Gm
ignorando fuerzas que jamas entenderas
F F Gm Gm
Y vienes desde alla donde no sale el sol donde no hay calor
F F Gm Gm
donde la sangre nunca se sacrifico por un amor
Dm Dm C C
pero aqui no es asi
A# A# F F
ah ah ah
A# A# F F Gm Gm A# A# F F Gm Gm
Sigues caminando ignorando sagrados ritos
A# A# F F Gm Gm A# A# F F Gm Gm
pisoteando sabios templos de amor espiritual
A# A# F F Gm Gm A# A# F F Gm Gm
Larga vida sigue velando el suenio de un volcan
A# A# F F Gm Gm A# A# F F Gm Gm
para un alma en pena cada piedra es un altar
F F Gm Gm
Y vienes desde alla donde no sale el sol donde no hay calor
F F Gm Gm
donde la sangre nunca se sacrifico por un amor
Dm Dm C C
pero aqui no es asi
A# A# F F
ah ah ah
(parte de bajo)
G G F F D D
G G F F D D
G G F F A# A#

A ------------------------------------------------------
E --5--------------3------5-----------------3---------3-
C 5-----5--5--4-5-----5-------5--5--4-5--6-----5---5----
G ----5-----------------5---5--------------------7------

A --------------------------------------------------------
E 3-5--6--5-3-6--5-3-6--5-3--------------5----------------
C ---------------------------5--4-2-5--5-----5------------
G -----------------------------------------5---5--7--8--7-

A -----------------------------7---9-----------------------9---7---9---7---5--
E --6--5-3------------6-----6-------------------------------------
C ----------5-------------5---------------------------------------
G 5-----------7--8--7---7------7--9--10--10--10--10--10--9--7--9--7--5-

F F Gm Gm
Y vienes desde alla donde no sale el sol donde no hay calor
F F Gm Gm
donde la sangre nunca se sacrifico por un amor
F F Gm Gm
Y vienes desde alla donde no sale el sol donde no hay calor
F F Gm Gm
donde la sangre nunca se sacrifico por un amor

A -5-8-5-5-8-5-810810810-108108
E 6-----8----------------------
C -----------------------------
G -----------------------------

Uke tab by , 23 Mar 2015

Tab comments (0)

No comment yet :(
Need help, a tip to share, or simply want to talk about this song? Start the discussion!

Something to say?
Share your strumming patterns, chords or tips to play this tab! ;)

Top Tabs & Chords by Caifanes, don't miss these songs!

About this song: Aqui No Es Asi

No information about this song.

Did you cover Aqui No Es Asi on your Ukulele? Share your work!
Submit a cover