Subwoofer Lullaby Uke tab by C418

Ukulele Tab without chords.

10/10
PrintAdd tab to your SongBook

Tablature / Chords (Full Song)

Font size: A- A A+

Artist: 
Album:  unknown
Difficulty: 
5
(Intermediate)
Key: unknownTablature (no chords)
THIS TAB IS PROVIDED TO YOU BY Зефирка Владиславкин Check him out on Youtube for more awesome tabs!

Intro
A|----2---2-----2---2-| x2
E|----0---0-----0---0-|
C|-0---------0--------|
G|------0---------0---|

Melody
A|-2--3--5--7-----5-----2--3--2-----2--|
E|----------------------------0-----0--|
C|-0-----------0-----------0-----------|
G|-------0-----------0-----------0-----|


A|-2--7--5--7-----10-----7-/-(7)--5-----2-| #
E|----------------------------------------|
C|-0-----------0--------------0------0----|
G|-------0------------0-----------0-----0-|


A|-8--7-----3-----0--3--2--------7-----5----|
E|----------------------------0-------------|
C|-0-----------0--------0-----------0-------|
G|-------0-----------0-----0--------------0-|


A|-8--7-----3-----0--12--10--7--5-----2-----|
E|---------------------------------------3--|
C|-0-----------0---------0---------0--------|
G|-------0-----------0-------0-----------0--|

Outro
A|----10--7--10--| x4
E|----7------7---| # Let the final note ring out
C|-0-------------|
G|--------0------|

⇢ Not happy with this tab? View 1 other version(s)

Uke tab by , 05 Aug 2022

Tab comments (1)

Something to say?
Share your strumming patterns, chords or tips to play this tab! ;)
Filter by:
genericghost avatar
So pretty :)
05 Aug 2022
Comment

Top Tabs & Chords by C418, don't miss these songs!

About this song: Subwoofer Lullaby

No information about this song.

Did you cover Subwoofer Lullaby on your Ukulele? Share your work!
Submit a cover