Waste (Solo) Uke tab by BROCKHAMPTON

Ukulele Tab without chords.

Add tab to your SongBook
Tablature / ChordsFont size: A- A A+

Don't know how to read a tab or a chord ? Check out these uke lessons:

Detailed guide to strumming and picking
How to read uke tabs
Reading chord diagrams

H         H           H            S           S  S    S     H           H           H              
A|---------------------------------------------------------------------------------------------------------|
E|-----5-----5------------5-----------5---5-----5----------------5--5--------5--5--------5--5--------------|
C|-------------------------------------------------------------4-------------------------------------------|
G|--9-----4------4--6--4-----4--6--4---------4-----9--6--7--6----------4--6--------4--6--------4-----------|
S
A|----------------------------------------------------------------------------|
E|-----5--------------5-------------------------------------------------------|
C|----------------------------------------------------------------------------|
G|--6-----9--7--6--4----------------------------------------------------------|

 

Tab comments (1)
You must be logged in to join the discussion
or Register

 

drabbydaijah avatar
instead of 5th fret on E string, you can do 3nd fret on G string
05 Apr 2018
About this song

No information about this song.