No One Would Riot For Less Uke tab by Bright Eyes

3 Chords used in the song: Bm, Bm/A, A

PrintAdd tab to your SongBook
Tablature / ChordsFont size: A- A A+

Don't know how to read a tab or a chord ? Check out these uke lessons:

Detailed guide to strumming and picking
How to read uke tabs
Reading chord diagrams

Death may come invisible
A--2-5-----5--------2-5-----5--------2-5-----5--------2-5-----5--------|
E--------2----------------2----------------2----------------2----------|
C----------------------------------------------------------------------|
G------4-----4----------4-----4----------4-----4----------4-----4------|
Bm Bm

Or in a Holy wall of fire
A--0-5-----5--------0-5-----5--------0-5-----5--------0-5-----5--------|
E--------2----------------2----------------2----------------2----------|
C----------------------------------------------------------------------|
G------4-----4----------4-----4----------4-----4----------4-----4------|
Bm/A Bm/A

In the breath between the markers
A--0-------7--------0-------7--------0-------7--------0-------7--------|
E------5-5--------------5-5--------------5-5--------------5-5----------|
C----------------------------------------------------------------------|
G----6-------6--------6-------6--------6-------6--------6-------6------|
A A

On some black I-80 mile
A--2-5-----5--------2-5-----5--------2-5-----5--------2-5-----5--------|
E--------2----------------2----------------2----------------2----------|
C----------------------------------------------------------------------|
G------4-----4----------4-----4----------4-----4----------4-----4------|
Bm Bm

From the madness of the governments
A--2-5-----5--------2-5-----5--------2-5-----5--------2-5-----5--------|
E--------2----------------2----------------2----------------2----------|
C----------------------------------------------------------------------|
G------4-----4----------4-----4----------4-----4----------4-----4------|
Bm Bm

To the vengeance of the sea
A--0-5-----5--------0-5-----5--------0-5-----5--------0-5-----5--------|
E--------2----------------2----------------2----------------2----------|
C----------------------------------------------------------------------|
G------4-----4----------4-----4----------4-----4----------4-----4------|
Bm/A Bm/A

Everything is eclipsed
A--0-------7--------0-------7--------0-------7--------0-------7--------|
E------5-5--------------5-5--------------5-5--------------5-5----------|
C----------------------------------------------------------------------|
G----6-------6--------6-------6--------6-------6--------6-------6------|
A A

By the shape of destiny
A--2-5-----5--------2-5-----5--------2-5-----5--------2-5-----5--------|
E--------2----------------2----------------2----------------2----------|
C----------------------------------------------------------------------|
G------4-----4----------4-----4----------4-----4----------4-----4------|
Bm Bm

Chorus:

So love me now
A--0-------7--------0-------7--------0-------7--------0-------7--------|
E------5-5--------------5-5--------------5-5--------------5-5----------|
C----------------------------------------------------------------------|
G----6-------6--------6-------6--------6-------6--------6-------6------|
A A

Hell is coming
A--2-5-----5--------2-5-----5--------2-5-----5--------2-5-----5--------|
E--------2----------------2----------------2----------------2----------|
C----------------------------------------------------------------------|
G------4-----4----------4-----4----------4-----4----------4-----4------|
Bm Bm

Kiss my mouth
A--0-------7--------0-------7--------0-------7--------0-------7--------|
E------5-5--------------5-5--------------5-5--------------5-5----------|
C----------------------------------------------------------------------|
G----6-------6--------6-------6--------6-------6--------6-------6------|
A A

Hell is here
A--2-5-----5--------2-5-----5--------2-5-----5--------2-5-----5--------|
E--------2----------------2----------------2----------------2----------|
C----------------------------------------------------------------------|
G------4-----4----------4-----4----------4-----4----------4-----4------|
Bm Bm

A----5----5-----------5-----5----------5-----5----------5-----5--------|
E-------2-----------------2----------------2----------------2----------|
C--2----------------2----------------2----------------2----------------|
G------2----2-----------2-----2----------2-----2----------2-----2------|

A--0-------7--------0-------7--------0-------7--------0-------7--------|
E------5-5--------------5-5--------------5-5--------------5-5----------|
C----------------------------------------------------------------------|
G----6-------6--------6-------6--------6-------6--------6-------6------|

A---------2-----------------2----|
E--3----3-----------3-----3------|
C-----2-----------------2--------|
G---0-------0---------0-------0--|

A--2-5-----5--------0---
E--------2--------------
C-----------------------
G------4-----4----------

 

Tab comments (0)
No comment yet :(
Need help, a tip to share, or simply want to talk about this song? Start the discussion!

You must be logged in to join the discussion
or Register

 

About this song

No information about this song.