Holocene (intro) Uke tab by Bon Iver

2 Chords used in the song: C, G

Rate song!
PrintAdd tab to your SongBook

Tablature / Chords (

Font size: A- A A+

Artist: 
Album:  unknown
Difficulty: 
2.5
(Beginner)
Key: C, G, Am, EmChords and Tablature
A--|--3-----5---|---3-----5---|-0-3-------3-----5---|
E--|------3---0-|-------3---0-|-------3-3-----3---0-|
C--|0-----------|-0-----------|---------------------|
G--|0---0-------|-0---0-------|-2---2---0---0-------|

A-|---3-----5---|---3-----5---|--3-----5---|-0-3-----5---|
E-|-3-----3---0-|-3-----3---0-|3-----3---0-|-------3---0-|
C-|-------------|-------------|------------|-------------|
G-|-0---0-------|-0---0-------|0---0-------|-2---2-------|

A-|---3-----5---|---3-----5---|---3-----5---|---3-----5---|
E-|-------3---0-|-------3---0-|-------3---0-|-------3---0-|
C-|-5-----------|-5-----------|-5-----------|-5-----------| G-|-2---2-------|-2---2-------|-2---2-------|-2---2-------|

Uke tab by , 08 Dec 2011

Tab comments (0)

No comment yet :(
Need help, a tip to share, or simply want to talk about this song? Start the discussion!

Something to say?
Share your strumming patterns, chords or tips to play this tab! ;)

Top Tabs & Chords by Bon Iver, don't miss these songs!

About this song: Holocene (intro)

No information about this song.

Did you cover Holocene (intro) on your Ukulele? Share your work!
Submit a cover