No Woman No Cry Uke tab by Bob Marley

Ukulele Tab without chords.

Add tab to your SongBook
Tablature / ChordsFont size: A- A A+

Don't know how to read a tab or a chord ? Check out these uke lessons:

Detailed guide to strumming and picking
How to read uke tabs
Reading chord diagrams

A|-----3--2--3--2--0--------0--0-----0-----7--8--7--5--3--|
E|--0-----3--------0-----0-----1--------0-----5--------0--|
C|--0-----2--------0--0--------0--0-----0-----5--------0--|
G|--0-----0--------2-----------2--------0-----5--------0--|



A|--------0--2--3--5-----7--7--10--10--10--10--10--10--7--|
E|-----0-----3--5--7--0--------7-----------7--------------|
C|--0-----------------0--------7-----------7--------------|
G|--------------------0--------7-----------7--------------|



A|--3--------3-----7--7--5--5--8--7--3--------3--3--------|
E|--1-----1-----0--------3-----------0-----0-----1-----1--|
C|--0--0--------0--------5-----------0--0--------0--0-----|
G|--2-----------0--------0-----------0-----------2--------|



A|--3--3--3--2--3--2--0--------0--0-----0-----7--8--7--5--|
E|-----0-----3--------0-----0-----1--------0-----5--------|
C|-----0-----2--------0--0--------0--0-----0-----5--------|
G|-----0-----0--------2-----------2--------0-----5--------|



A|--5h7--------------------------------------------------|
E|--0----------------------------------------------------|
C|--0----------------------------------------------------|
G|--0----------------------------------------------------|

 

Tab comments (0)
No comment yet :(
Need help, a tip to share, or simply want to talk about this song? Start the discussion!

You must be logged in to join the discussion
or Register

 

About this song

Hello