Is This Love (Intro) Uke tab by Bob Marley

Ukulele Tab without chords.

Add tab to your SongBook
Tablature / ChordsFont size: A- A A+

Don't know how to read a tab or a chord ? Check out these uke lessons:

Detailed guide to strumming and picking
How to read uke tabs
Reading chord diagrams

A|---0---------------------2-------4-0-4/5-4-0---|
E|---2-----2-4/5-2-----2---2---2---0-----------2-|
C|-1-1-1-4---------1-4---2-2-2-----1-------------|
G|---2---------------------2-----2-2-------------|

A|---0---------------------2-------4-4-4-4-------|
E|---2-----2-4/5-2-----2---2---2---0-0-0-0-------|
C|-1-1-1-4---------1-4---2-2-2-----1-1-1-1-------|
G|---2---------------------2-----2-2-2-2-2-------|


# / = slide.

 

Tab comments (1)
You must be logged in to join the discussion
or Register

 

ilprofe avatar
not sure what the chords following that are... Nice intro man!
26 Oct 2014
About this song

No information about this song.