Big Fat Mouth Uke tab by Arlie

Ukulele Tab without chords.

Rate song!
PrintAdd tab to your SongBook

Tablature / Chords (Full Song)

Font size: A- A A+

Artist: 
Album:  unknown
Key: unknownTablature (no chords)
A|---------------------------------------------------------------------------|
E|-5-----5-----------5----------5--------------5-----5-----------5-----------|
C|----------------------6--4-6-----6--4-2---2-----------------------6--4-6---|
G|----4-----4--7--4-----------------------4-------4-----4--7--4--------------|

A|----------------------------------------------------------------------------|
E|-5----------5------------------------------5-----------5----------5--------|
C|----6--4-2------------------------------------------------6--4-6-----------|
G|---------------4---7--9--7--9--11--9--7--4-----4--7--4----------------4-----|

A|---------------------------------------------------------------------------|
E|-5-----------5----------5--------------------------------------------------|
C|----------------6--4-6-----6--4-2-----2------------------------------------|
G|----4--7--4------------------------4---------------------------------------|

Uke tab by , 28 Dec 2019

Tab comments (1)

Something to say?
Share your strumming patterns, chords or tips to play this tab! ;)
Filter by:
megangoldberg avatar
The night is young, and all I can think about is the way your laughter fills the room. f1nd me on megangoldberg_mooo_com change _ to dot
05 Jun 2024
Comment

Top Tabs & Chords by Arlie, don't miss these songs!

About this song: Big Fat Mouth

No information about this song.

Did you cover Big Fat Mouth on your Ukulele? Share your work!
Submit a cover