Crímenes Perfectos Uke tab by Andrés Calamaro

9 Chords used in the song :

Add tab to your SongBook

View these chords for the Baritone

Transpose chords:
Tablature / ChordsFont size: A- A A+

Don't know how to read a tab or a chord ? Check out these uke lessons:

How to read uke tabs
Reading chord diagrams


A chordA E chordE F# chordF# D chordD Bm chordBm E chordE

A chordA E chordE F#m chordF#m
Sentiste alguna vez lo que es
D chordD Bm chordBm E chordE
Tener el corazón roto
A chordA E chordE F#m chordF#m
Sentiste a los asuntos pendientes volver
D chordD Bm chordBm E chordE
Hasta volverte muy loco

D chordD
Si resulta que sí
E chordE
Si podrás entender
A chordA F#m chordF#m
Lo que me pasa a mí esta noche
D chordD
Ella no va volver
E chordE A chordA F#m chordF#m
Y la pena me empieza a crecer adentro
D chordD E chordE A chordA
La moneda cayo por el lado de la soledad
F#m chordF#m Bm chordBm E chordE
Y el dolor

A chordA E chordE F# chordF# E chordE D chordD
Todo lo que termina termina mal
Bm chordBm E chordE
Poco a poco
A chordA E chordE F# chordF# E chordE D chordD
Y si no termina se contamina mal
Bm chordBm E chordE
Y eso se cubre de polvo

D chordD
Me parece que soy
E chordE
de la quinta que vio
A chordA F#m chordF#m
Que vio el mundial setenta y ocho
D chordD
Me toco crecer
E chordE A chordA F#m chordF#m
Viendo a mi alrededor paranoia y dolor
D chordD E chordE A chordA
La moneda cayo por el lado de la soledad
F#m chordF#m Bm chordBm E chordE
Y el dolor

A chordA F#m chordF#m Bm chordBm E chordE
No me lastimes con tus crímenes perfectos
A chordA F#m chordF#m Bm chordBm E chordE
Mientras la gente indiferente sé de cuenta
F chordF G chordG C chordC
De vez en cuando solamente sale afuera la
E chordE
Peor manera

A chordA E chordE F#m chordF#m D chordD Bm chordBm E chordE
A chordA E chordE F#m chordF#m D chordD Bm chordBm E chordE

A|-------------------------------------------------------|
E|----------5------------------2-----------5--5----------|
C|--------------6----------------------4-6---------------|
G|--4----4------------4---4--2--------------------4--6---|

A|-------------------------------------------|
E|-----5--------------------5---------5------|
C|---------------------------------------6---|
G|--4------9--11--9--7---4------4---6--------|

A|---------------------------------------------------------------------|
E|---------4--------------5--------------5-----------------------------|
C|-----4-6--------4-6--6--------------------6-----4-6--4-6--4-6--4-6---|
G|--4-6-------4-6---------------4--6--4--------------------------------|

A|----------------------------------------------------|
E|--------------------2--------5---------------5------|
C|-------------------------4-6--------------------6---|
G|--6--6--6--4-2-4--2-------------9--11-4--6----------|

A|------------------------------------------|
E|--------------------------------------5---|
C|------------------------------------------|
G|--9--11--9-----4--6-9--4--6-9---6--4------|

D chordD
Si resulta que sí
E chordE
Si podrás entender
A chordA F#m chordF#m
Lo que me pasa a mí esta noche
D chordD
Ella no va volver
E chordE A chordA F#m chordF#m
Y la pena me empieza a crecer adentro
D chordD E chordE A chordA F#m chordF#m Bm chordBm E chordE
La moneda cayo por el lado de la soledad y el dolor
D chordD E chordE A chordA F#m chordF#m Bm chordBm E chordE
La moneda cayo por el lado de la soledad otra vez
D chordD E chordE A chordA F#m chordF#m Bm chordBm E chordE
La moneda cayo por el lado de la soledad

 

Tab comments (0)
No comment yet :(
Need help, a tip to share, or simply want to talk about this song? Start the discussion!

You must be logged in to join the discussion
or Register

 

About this song

No information about this song.

1.7928 sec, 5 Q