Learn to play ukulele : Progression Of Fifths

Progression Of Fifths

Progression Of Fifths feedback
New to Uke? Learn how to play with easy Ukulele Lessons for beginners.

Clockwise Progression

A|-------0---2---------1--------||
E|---3-----0---2---4-----1------||
C|-0---2---------1---3-----0----||
G|------------------------------||

Counter Clockwise Progression

A|-----1---------2---0----------||
E|---1-----4---2---0-----3------||
C|-0-----3---1---------2---0----||
G|------------------------------||

0.0349 sec, 4 Q