Despacito Fingerstyle Tab par Luis Fonsi

Tablature Ukulélé sans accords.

Ajouter cette tab à votre SongBook
Tablature / ChordsFont size: A- A A+

Vous ne savez pas comment lire une tablature ou un accord ?
Ne manquez pas nos cours:

Comment lire une tablature pour ukulélé
Comment lire un accord

INTRO
A|------2-4-5-4-2---2--|
E|----2-----------6----|
C|--2------------------|
G|4--------------------|

A|------2--4-5-7-9~-----9~-------|
E|----2-------------10~----10~~--|
C|--2----------------------------|
G|4------------------------------|

A|----5-----4~---2--|
E|------------------|
C|4/6---2/4----2----|
G|------------------|

VERSES

(2X)
A|3-333-5-6-8-6-5-3-----6-6-6----6---6---685---|
E|------------------6-4------------------------|
C|---------------------------------------------|
G|-----------------------------3---3---3-------|

PRE CHORUS

A|3-333-5-6-5-6-5-6-5-3-333-5-6-5-6-5-6-8----|
E|-------------------------------------------|
C|-------------------------------------------|
G|----------------------------------------3--|


A|--------6-6-6-6-8-8-5------|
E|---------------------------|
C|---------------------------|
G|3-3-3-3---------------5-5--|

A|3-333-5-6-5-6-5-6-5-3-333-5-6-5-6-5-6-8----|
E|-------------------------------------------|
C|-------------------------------------------|
G|----------------------------------------3--|

A|--------6-6-6-6-8-8-5------|
E|---------------------------|
C|---------------------------|
G|3-3-3-3---------------5-5--|

CHORUS

A|6-5-3---------3-3-3-3-3---3------------3-3-3-3-5-6---|
E|------3-3-3-3-----------6---4--4-4-4-4---------------|
C|-----------------------------------------------------|
G|---------------------------------------------------3-|

A|--------6-6-6-6-8-8-5------|
E|---------------------------|
C|---------------------------|
G|3-3-3-3---------------5-5--|

A|6-5-3---------3-3-3-3-3---3------------3-3-3-3-5-6---|
E|------3-3-3-3-----------6---4--4-4-4-4---------------|
C|-----------------------------------------------------|
G|---------------------------------------------------3-|

A|--------6-6-6-6-8-8-5------|
E|---------------------------|
C|---------------------------|
G|3-3-3-3---------------5-5--|

UPPER

A|6-5-10-8-10-8-10-8-10-8-10-8-10-11-11---|
E|----------------------------------------|
C|----------------------------------------|
G|--------------------------------------8-|


A|11-11-11-11-11-13-11-10-10-10-10-10-13-11-10-8-5-6-|
E|---------------------------------------------------|
C|---------------------------------------------------|
G|---------------------------------------------------|


A|10-8-10-8-10-8-10-8-10-8-10-11-11---|
E|------------------------------------|
C|------------------------------------|
G|----------------------------------8-|

A|11-11-11-11-11-13-11-10-10-10-10-10-13-11-10-8-5-6-|
E|---------------------------------------------------|
C|---------------------------------------------------|
G|---------------------------------------------------|

BRIDGE

A|3-3-6-6-5-3-3-6-5-6-5-3-3-3-6-6-5-3--|
E|-------------------------------------|
C|-------------------------------------|
G|-------------------------------------|

A|8-8-8-6-8-6-8-8-8-6-8-6-6-6-6-6-5-5-5-5---6-5-----6-5-|
E|----------------------------------------8-----8-8-----|
C|------------------------------------------------------|
G|------------------------------------------------------|

ENDING

A|11-11-11-11-11-11-13-11-10-10-10-10-10-10-13-11-10-8-6-5-3--|
E|-----------------------------------------------------------3|
C|------------------------------------------------------------|
G|------------------------------------------------------------|

 

Commentaires (0)
Aucun commentaire :(
Besoin d'aide, envie de partager une astuce, ou simplement de parler de cette chanson? Commencez la discussion!

Vous devez être connecté pour participer à la discussion
ou Inscription

 

A propos de cette chanson

Pas d'information sur cette chanson.