Avaritia (Riff) Tab par Deadmau5

Tablature Ukulélé sans accords.

ImprimerAjouter cette tab à votre SongBook
Tablature / ChordsFont size: A- A A+

Vous ne savez pas comment lire une tablature ou un accord ?
Ne manquez pas nos cours:

Comment lire une tablature pour ukulélé
Comment lire un accord

A||-----------------|---------------------------|--------------------------------|
E||--------------5--|-3--5--3-----------3-----|----------------------5--------|
C||-----------------|-------------------------|-------------------------------|
G||--5--7--4--5-----|----------5--10--7-----10--|-7--5--10--9--5--7--9-----------|

A||-----------------------------------------------------------------------------|
E||--5--3--5--------5---------------------------------------------------------|
C||---------------------------------------------------------------------------|
G||-----------10--5-----10--7---------------------------------------------------|

 

Commentaires (0)
Aucun commentaire :(
Besoin d'aide, envie de partager une astuce, ou simplement de parler de cette chanson? Commencez la discussion!

Vous devez être connecté pour participer à la discussion
ou Inscription

 

A propos de cette chanson

Pas d'information sur cette chanson.