Raise Your Weapon (Intro) Tab par Deadmau5

1 Accords utilisés dans la chanson:

Ajouter cette tab à votre SongBook
Tablature / ChordsFont size: A- A A+

Vous ne savez pas comment lire une tablature ou un accord ?
Ne manquez pas nos cours:

Comment lire une tablature pour ukulélé
Comment lire un accord

This works on a guitar... its just 5 steps higher on the uke

| | | | | | | |
|--------------------------------|--------------------------------|
|2-------------------------------|--------7---------------4-------|
|4---------------------3---------|--------8---------------4-------|
|4-------------------------------|--------6---------------2-------|


| | | | | | | |
|--------------------------2-----|--------------------------------|
|--------------------------2-----|--------2-----------------7-----|
|--------4-----------------3-----|--------------------------8-----|
|--------------------------4-----|----------------------4---6-----|


| | | | | | | |
|--------------------------------|------------------2-------------|
|--------------------------------|--------------------------------|
|----------8-----------------4---|------------------3-------------|
|----------6---------------------|------------------4-------------|


| | | | | | | |
|--4-----------------------------|--6-------------------7---------|
|--0-----------------------------|----------------------4---------|
|--------------------------3-----|--6-----------------------------|
|--2-----------------------------|--4-------------------6---------|


| | | | | | | |
|--------------------6-----------|--------------------------------|
|--------------------------------|--2-----------------------------|
|----4---------------6-----------|------------------8-------------|
|--------------------4-----------|------------------6-------------|


| | | | | | | |
|--------------------------------|--------------------------------|
|4-----------5-------------------|--------------------------------|
|8-------------------------------|--------------------------------|
|6-------------------------------|--------------------------------|

 

Commentaires (0)
Aucun commentaire :(
Besoin d'aide, envie de partager une astuce, ou simplement de parler de cette chanson? Commencez la discussion!

Vous devez être connecté pour participer à la discussion
ou Inscription

 

A propos de cette chanson

Pas d'information sur cette chanson.