Strobe Tab par Deadmau5

Tablature Ukulélé sans accords.

Ajouter cette tab à votre SongBook
Tablature / ChordsFont size: A- A A+

Vous ne savez pas comment lire une tablature ou un accord ?
Ne manquez pas nos cours:

Comment lire une tablature pour ukulélé
Comment lire un accord

A||----------------------------------------------------------------------------|
E||--4--------------------------------4--------2--4----------4---------4---4|
C||----------------------------------------4--4--4--4--4--4--------8--------|
G||----4-8-4-8-4-8-4-8-4-8-4-8-6-8-9-6--68--4--------9--4--9---4---8---16----|

A||------------------------------------------—8---------8---------------------------|
E||-----4-6-------------4---4---4---4-6-4---------4-------4-------4---4-----|
C||---------------6--6------------------------8-------8-------8-------------|
G||--9-6-6--64-611--6--8---4---11---4-------4---13---15---11---16---9---13---15-----|

A||------------------------------------------------------------|------------|--|
E||-----------4-------------------4---------4-6--------------|-4---4-----|--|
C||---------------4-4--4-4--4-4--4-4--4-4-------------6--6---|-----------|--|
G||--4-6-4-13-6-68--4-9--4-9--4-9----8--4-9-6-6--64-611--6--8--|---4---11---|--|

A||---------------------------------|
E||--4-6-4---4---4---4---4---4-----|
C||--------------------------------|
G||--------13---4---9---4---4---6---|

 

Commentaires (0)
Aucun commentaire :(
Besoin d'aide, envie de partager une astuce, ou simplement de parler de cette chanson? Commencez la discussion!

Vous devez être connecté pour participer à la discussion
ou Inscription

 

A propos de cette chanson

Pas d'information sur cette chanson.