Fireflies Tab par Chris Garneau

4 Accords utilisés dans la chanson: Dm, C, Gm, A

Ajouter cette tab à votre SongBook
Tablature / ChordsFont size: A- A A+

Vous ne savez pas comment lire une tablature ou un accord ?
Ne manquez pas nos cours:

Comment lire une tablature pour ukulélé
Comment lire un accord

(Intro:)
A:---0-----1-0--0-|-----0-----1-0--1-0----|
E:-------------1--|---------------1----1--|
C:----------------|---------------------2-|
G:-10-7-9-0---0---|-9-10-7-9-0---0----0---|

A:-----------------|
E:--1--0-1-1-1-0---|
C:-2--1-2---2-1--2-|
G:--2--2-2-2-2-2-2-|


(Verse):
Dm Dm C C
Its not easy so, you take it slow
Gm Gm A A
You're coming up, you're coming around the bend
Dm Dm
You're my good friend
C C
Best friend
Gm Gm A A Dm Dm
And you're coming up, you're coming around the bend
Dm Dm A A Dm Dm Dm Dm A A Dm Dm
Ha ha, ha


(Chorus):
Dm Dm C C Gm Gm
You're making friends with the fireflies
Dm Dm C C A A
I can't say that that comes as a surprise
Dm Dm C C Gm Gm
But the things they say are not what they seem
Dm Dm A A Dm Dm
So you've been called to tell us what they mean
Dm Dm A A Dm Dm
Yes, you've been called to tell us what they mean


(Verse):
Dm Dm
It's a plot though
C C
I told you so
Gm Gm A A
I'm wising up, I'm wising up to them
Dm Dm C C
They seem like good friends, best friends
Gm Gm A A Dm Dm
and I'm wising up, I'm wising up to them
Dm Dm A A Dm Dm Dm Dm A A Dm Dm
Ha ha, ha

(Chorus):
Dm Dm C C Gm Gm
You're making friends with the fireflies
Dm Dm C C A A
You know when they die their light stays alive
Dm Dm C C Gm Gm
But the things they say are not what they seem
Dm Dm A A Dm Dm
So you've been called to tell us what they mean
Dm Dm A A Dm Dm
Yes, you've been called to tell us what they mean

(Bridge:)
A:---0-----1-0--0-|-----0-----1-0--1-0----|
E:-------------1--|---------------1----1--|
C:----------------|---------------------2-|
G:-10-7-9-0---0---|-9-10-7-9-0---0----0---|


Dm Dm C C Gm Gm
You're making friends with the fireflies
Dm Dm C C A A
I can't say that that comes as a surprise
Dm Dm C C Gm Gm
But the things they say are not what they seem
Dm Dm A A Dm Dm
So you've been called to tell us what they mean
Dm Dm A A Dm Dm
Yes, you've been called to tell us what they mean

(Outro:)
A:---0-----1-0--0-|-----0-----1-0--1-0----|
E:-------------1--|---------------1----1--|
C:----------------|---------------------2-|
G:-10-7-9-0---0---|-9-10-7-9-0---0----0---|

 

Commentaires (1)
Vous devez être connecté pour participer à la discussion
ou Inscription

 

Angieisanoodle avatar
love this picking pattern
10 Nov 2018
A propos de cette chanson

Pas d'information sur cette chanson.