Fur Elise Tab par Beethoven, Ludwig Van

Tablature Ukulélé sans accords.

ImprimerAjouter cette tab à votre SongBook
Tablature / ChordsFont size: A- A A+

Vous ne savez pas comment lire une tablature ou un accord ?
Ne manquez pas nos cours:

Comment lire une tablature pour ukulélé
Comment lire un accord

20 42 307 6 7 6 7 2 5 3
A|--7--6--7--6--7--2--5--3------0--2------2--3--------|
E|-----------------------------0------0--4-------------|
C|---------------------------0-------------------------|
G|-----------------------------------------------------|

A|----7--6--7--6--7--2--5--3-----0--2---3--2--0--5--7---8---|
E|--0---------------------------0------0---------------------|
C|----------------------------0------------------------------|
G|-----------------------------------------------------0-----|

A|--5----7--3----5--3--2--7--6--7--6--7--2--5--3------0-2---|
E|-------------0------------------------------------0------|
C|-----5------------------------------------------0--------|
G|---------------------------------------------------------|

A|--------2--3-----7--6--7--6--7--2--5--3--0-------0--2-----3--2--0----|
E|--0--4--------0--------------------------------0-------0-----------|
C|---------------------------------------------0--------------------|
G|-------------------------------------------------------------------|

 

Commentaires (1)
Vous devez être connecté pour participer à la discussion
ou Inscription

 

LambsBee42 avatar
In the third bar, I think the 0 fret at the end (just before you're supposed to play the second fret) needs to be over a bit more, because you play it after and not at the same time.
15 Jul 2013
A propos de cette chanson

Pas d'information sur cette chanson.