Fur Elise Tab par Beethoven, Ludwig Van

Tablature Ukulélé sans accords.

ImprimerAjouter cette tab à votre SongBook
Tablature / ChordsFont size: A- A A+

Vous ne savez pas comment lire une tablature ou un accord ?
Ne manquez pas nos cours:

Comment lire une tablature pour ukulélé
Comment lire un accord

A-7-6-7-6-7-2-5-3-0----0-2-----2-3---
E---------------------0----0-------0-
C-------------------0----------------
G----------------------------1-------

A-7-6-7-6-7-2-5-3-0----0-2---3-2-0---
E---------------------0----0-------0-
C-------------------0----------------
G------------------------------------

A-2-3-5-7---8-7-5---7-5-3---5-3-2----
E---------0-------0-------0-------0--
C------------------------------------
G------------------------------------

 

Commentaires (15)
Vous devez être connecté pour participer à la discussion
ou Inscription

 

__M__I__A__ avatar
Omg I thought this was going to be complicated af but it was so easy I learned it in about 5 minutes
05 May 2020
scarletbenoit4 avatar
at the very end I say it needs just the final 0 on e and then 3, 2, 0 on a
07 Oct 2019
maria_martina avatar
cool
29 Jun 2019
SKK2468 avatar
flag for UM(ISO2) (Why)
Love it!
24 May 2019
spoonsarecute avatar
flag for FR(ISO2) (Lyon )
good
19 Apr 2019
naomisora avatar
flag for CO(ISO2) (medellin)
so good!!
22 Jun 2018
RaphsLyfe avatar
flag for CA(ISO2) (Edmonton)
This is great!
01 Dec 2017
 avatar
flag for (ISO2)
One of my favorites that I can play on the piano. Sounds great!!!
22 Nov 2014
stiffler125 avatar
flag for GB(ISO2) (brynmawr)
nice idea with the change man, sounds better :D
02 Sep 2012
miksan96 avatar
flag for NO(ISO2) (Løvenstad)
yeah nice, but I prefere to play the 1 on 1st string as 4 on 3rd string... but thanks alot for helping us out! :)
16 May 2012
Ocalele avatar
AWESOME
19 Oct 2011
UkeKosie avatar
flag for NL(ISO2) (Katwijk aan Zee)
Very Cool =D
30 Mar 2011
makins avatar
flag for GB(ISO2) (Ludlow)
lol awesome !
22 Feb 2010
JaxX avatar
flag for DE(ISO2) (Berlin)
Nice one !!!
22 Dec 2009
Cate avatar
flag for US(ISO2) (helena)
perfect!!!!
18 Dec 2009
A propos de cette chanson

Pas d'information sur cette chanson.