hemmpa

Member

Last active 3 months ago

  1. 3 months ago
    Sun Jul 28 22:50:45 2019

    Yeah! learning any instrument is!.

  2. Sun Jul 28 22:42:09 2019
    hemmpa started the conversation ...To be continued.

    Hello, I´d please like to find a "playable" version of Chopins Nocturne 9 op. 2.
    This is a start , but where is the finale?

    This piece that I found on the ukulele underground forum from some years ago, is also a very nice start.
    But also lacking the finale.
    C Fm Cadd9 C A7
    A||-----|-7----------|---------7---|-5-----------|-3-----------|-7-----------|
    E||-----|-0----------|-----4-------|-0-----------|-0-----------|-5-------5---|
    C||-----|-0----------|-5-----------|-0-----------|-0-----------|-4-----------|
    G||---0-|-0----------|-5-----------|-0-----------|-0-------0---|-0-----------|
    * * * * * * * * * * * * * * *

    A7 Gm Dm G7 E7
    |-12--------|-10----------|-8-------7---|-5-----------|-7-----------|
    |-9---------|-10----------|-10----------|-3-----------|-7-------7---|
    |-9---------|-10----------|-9-----------|-5-----------|-8-----------|
    |-0-------9-|-------------|-------------|-4-----------|-7-----------|
    * * * * * * * * * * * * * * *

    Am7 F#dim G7 C
    |-3---------|-0-----------|-----14------|-10-----8-----|-------------|
    |-5---------|-2-----------|-3-----------|------------7-|-8-----------|
    |-4---------|-0-----------|-2-----------|----------9---|-0-----------|
    |-0---------|-2-----------|---------14--|---10-9-------|-0-----------|
    * * * * * * * * * * * * * * *

    C Fm Cadd9 C A7
    |-----------|-7--------|---7-5-4-5-7-|-5---3-----|---5-------5-|-7---0---0---|
    |-0---------|-0--------|-4-----------|-0---------|-0-----7-----|---4---6-----|
    |-0---------|-0--------|-5-----------|-0---------|-0-----------|-------------|
    |-0-------0-|-0--------|-------------|-0---------|-0---5---5---|-----------7-|
    * * * * * * * * * * * * * * * * * *

    A7 Gm Dm G7 E7
    |---8--13-12---|-10----------|-8-------7---|-5-----------|-7---7-------|
    |-9------------|-10----------|-10----------|-3-----------|-7-------7---|
    |--------------|-10----------|-9-----------|-5-----------|-8-----------|
    |-----9------9-|-0-----------|-------------|-4-----------|-7-----------|
    * * * * * * * * * * * * * * *

    Am7 F#dim G7 C
    |-3---------|-0-----------|-----14------|-10-----8-----|-------------||
    |-5---------|-2-----------|-3-----------|------------7-|-8-----------||
    |-4---------|-0-----------|-2-----------|----------9---|-0-----------||
    |-0---------|-2-----------|---------14--|---10-9-------|-0-----------||
    * * * * * * * * * * * * * * *
    I do beg your pardon if this was posted in the correct forum.(?)
    Best regards