Tab Converter Issue

  1. 2 years ago

    Can anyone give a 'Dummies' guide to the tab converter.

    I have tried the few lines of help but got nowhere.

    If I put in guitar tab with the | or |E etc and put the fret positions for each string then press convert - I get a blank box on the Ukulele tab page rather than any tab.

    Please help!!!

  2. UT

    22 Aug 2017 Administrator

    Hi @davegb1960, did you read the FAQ ?

    For ex this:

    E|-------5-7-----7-|-8-----8-2-----2-|-0---------0-----|-----------------|
    B|-----5-----5-----|---5-------3-----|---1---1-----1---|-0-1-1-----------|
    G|---5---------5---|-----5-------2---|-----2---------2-|-0-2-2-----------|
    D|-7-------6-------|-5-------4-------|-3---------------|-----------------|
    A|-----------------|-----------------|-----------------|-2-0-0---0--/8-7-|
    E|-----------------|-----------------|-----------------|-----------------|
     
    E|---------7-----7-|-8-----8-2-----2-|-0---------0-----|-----------------|
    B|-------5---5-----|---5-------3-----|---1---1-----1---|-0-1-1-----------|
    G|-----5-------5---|-----5-------2---|-----2---------2-|-0-2-2-----------|
    D|---7-----6-------|-5-------4-------|-3---------------|-----------------|
    A|-0---------------|-----------------|-----------------|-2-0-0-------0-2-|
    E|-----------------|-----------------|-----------------|-----------------|

    will become this:

                                                                       S      
    A|-----7-----7-----|---7-------5-----|---3---3-----3---|-2-0-0---0-------|
    E|-5-----5-4-------|-3-------2-----2-|-1---------0-----|-----------------|
    C|-----------------|-----------------|-----------------|-------------5-4-|
    G|---5---------5-4-|-----5-5-----2---|-----2---------2-|-0-2-2-----------|
                                                                               
    A|-0-----7---7-----|---7-------5-----|---3---3-----3---|-2-0-0-------0-2-|
    E|---5-----4-------|-3-------2-----2-|-1---------0-----|-----------------|
    C|-----------------|-----------------|-----------------|-----------------|
    G|-----5-------5-4-|-----5-5-----2---|-----2---------2-|-0-2-2-----------|

or Sign Up to reply!