Brown Eyed Girl (Riff) Tab por Van Morrison

tablatura Ukulele sin acordes.

Añadir esta tab a su SongBook
Tablature / ChordsFont size: A- A A+

¿ No sabe cómo leer una tablatura o un acorde ?

curso de ukulele

#Version in original key

A|-2-3--5--3-2--7-8---10--8--7--2-3--5--3-2--0---------0----
E|-3-5--7--5-3--8-10--12--10-8--3-5--7--5-3-----3-2--3------
C|-------------------------------------------------------2--
G|----------------------------------------------------------

# Version in C C
# (Note- Requires low G G tuning)

A|--------------0-1--3--1-0----------------------------
E|-0-1--3--1-0--1-3--5--3-1--0-1--3--1-0---------------
C|-0-2--4--2-0---------------0-2--4--2-0--2--0---0-2---
G|---------------------------------------------4-----0-

 

Comentarios (0)
Ningún comentario :(
¿Necesitas ayuda, un consejo para compartir o simplemente quieres hablar sobre esta canción? Comience la discusión

Debes iniciar sesión para unirte a la discusión
o Registrarse

 

Acerca de esta canción

No hay información por esta canción.