Brown Eyed Girl (Intro) Tab por Van Morrison

tablatura Ukulele sin acordes.

Añadir esta tab a su SongBook
Tablature / ChordsFont size: A- A A+

¿ No sabe cómo leer una tablatura o un acorde ?

curso de ukulele

# He plays this twice at the beginning of the song 

A|--2-3--5--3-2---7-8--10--8-7--|
E|------------------------------|
C|------------------------------|
G|--0-2--4--2-0---5-7---9--7-5--|

A|--2-3--5--3-2-0------------|
E|------------------2---3-5--|
C|--------------2------------|
G|--0-2--4--2-0--------------|


# You can also play it this way:

A|--2-3--5--3-2---7--8--12--8--7--|
E|--3-5--7--5-3---8-10--10--10-8--|
C|--------------------------------|
G|--------------------------------|

A|--2-3--5--3-2-0------------|
E|--3-5--7--5-3-----2---3-5--|
C|--------------2------------|
G|---------------------------|

# Any way you play it, with a little practice
it'll sound great!

 

Comentarios (0)
Ningún comentario :(
¿Necesitas ayuda, un consejo para compartir o simplemente quieres hablar sobre esta canción? Comience la discusión

Debes iniciar sesión para unirte a la discusión
o Registrarse

 

Acerca de esta canción

No hay información por esta canción.