Asgore (Intro) Tab por Toby Fox

tablatura Ukulele sin acordes.

ImprimirAñadir esta tab a su SongBook
Tablature / ChordsFont size: A- A A+

¿ No sabe cómo leer una tablatura o un acorde ?

curso de ukulele

A|----------------------------------------|
E|-----4---2-----------2----0-----------------|
C|-4-------------3---------------1----4----3---1|
G|----------------------------------------|



A|----------------------------------------|
E|----------------------4----2-----7------4---|
C|-0--2---0-------4--------------------6-------|
G|----------------------------------------|



A|----------------------------------------|
E|--4----2----4-----7-----9----12---11----9---7----11--|
C|----------------------------------------|
G|----------------------------------------|



A|----------------------------------------|
E|---9-------------------------------------|
C|----------------------------------------|
G|----------------------------------------|

 

Comentarios (1)
Debes iniciar sesión para unirte a la discusión
o Registrarse

 

Seals avatar
flag for US(ISO2) (Jackson)
It wasn’t a perfect tab, but it was OK. Plus the song is actually called Bergentruckung
01 Jun 2020
Acerca de esta canción

No hay información por esta canción.