Megalovania (Intro) Tab por Toby Fox

tablatura Ukulele sin acordes.

Añadir esta tab a su SongBook
Tablature / ChordsFont size: A- A A+

¿ No sabe cómo leer una tablatura o un acorde ?

curso de ukulele

A|------5--------------------------5-----------------------------------------|
E|----------------1---1----------------------1---1---------------------------|
C|-2-2--------------2---------0-0--------------2-----------------------------|
G|--------2--1-0--------0------------2--1-0---------0------------------------|

A|-2-2--5--------------------1-1---5------------------------------- ---------|
E|----------------1---1----------------------1---1---------------------------|
C|------------------2--------------------------2-----------------------------|
G|--------2--1-0---------0-----------2--1-0---------0------------------------|

 

Comentarios (6)
Debes iniciar sesión para unirte a la discusión
o Registrarse

 

RasberryS avatar
flag for US(ISO2) (Austin)
yes yes 10/10 sans in smash is very god



i mean god, not good.
04 Oct 2019
psfox avatar
@R3dFeather This is a tab/riff structure. The lines are your strings, and the number listed is where your finger rests on the neck. The order of the numbers tells you the order to pluck! I recommend watching some YouTube visual explanations, too. Tabs really enhance your song quality!
29 May 2019
R3dFeather avatar
I don't understand how to do this, the way it's written is different. Could someone explain please?
04 Mar 2019
Ashe1037 avatar
flag for CA(ISO2) (North Battleford )
Anyone else here for the first 4 notes?
01 Mar 2019
ahhrmy avatar
flag for US(ISO2) (Houston)
thank you sans, very cool!
17 Nov 2018
bookewyrm avatar
flag for US(ISO2) (Temple)
This is awesome! I can really hear in the top line, but something gets a bit wibbly in the bottom one...
08 Dec 2015
Acerca de esta canción

No hay información por esta canción.