Asgore (Intro) Tab por Toby Fox

tablatura Ukulele sin acordes.

ImprimirAñadir esta tab a su SongBook
Tablature / ChordsFont size: A- A A+

¿ No sabe cómo leer una tablatura o un acorde ?

curso de ukulele

A|---------------------------------------------------|
E|----4---2---------2---0----------------------------|
C|4-------------3-------------1---4---3-----0---3---1|
G|---------------------------------------------------|



A|--------------2-------------------2-4--7--6-7-6--2-6-4|
E|----4---2---------2---4-----4-2-4---------------------|
C|4-----------------------------------------------------|
G|------------------------------------------------------|

 

Comentarios (4)
Debes iniciar sesión para unirte a la discusión
o Registrarse

 

ResidentVevo avatar
this song is so much fun to play!
19 Nov 2018
lulumonbork avatar
it's fun to play this but it isn't the full one
07 Nov 2018
lolepop avatar
agreed
26 Apr 2018
KalaKiwi avatar
flag for PH(ISO2) (Pasig City)
Good tab! Though it's not the full one...
30 Jul 2017
Acerca de esta canción

No hay información por esta canción.