Afterlife Tab por Switchfoot

tablatura Ukulele sin acordes.

ImprimirAñadir esta tab a su SongBook
Tablature / ChordsFont size: A- A A+

¿ No sabe cómo leer una tablatura o un acorde ?

curso de ukulele

Intro
A|--0~---|
E|--0~---|
C|--0~---|
G|--2~---|


A|-0-0-0--0-0-0-6/7-0-0-0--0-0-0-----|
E|-0-0-0--0-0-0-----0-0-0--0-0-0-6/7-|
C|-0-0-0--0-0-0-----0-0-0--0-0-0-----|
G|-2-2-2--2-2-2-----2-2-2--2-2-2-----|


Verse 1
A|-0-0-0--0-0-0--0-0-0--0-0-0-6/7-0-0-0--0-0-0--0-0-0--0-0-0-----|
E|-0-0-0--0-0-0--0-0-0--0-0-0-----0-0-0--0-0-0--0-0-0--0-0-0-6/7-|
C|-0-0-0--0-0-0--0-0-0--0-0-0-----0-0-0--0-0-0--0-0-0--0-0-0-----|
G|-2-2-2--2-2-2--2-2-2--2-2-2-----2-2-2--2-2-2--2-2-2--2-2-2-----|


A|-0-0-0--0-0-0--2-2-2--2-2-2--0-0-0--0-0-0--2-2-2--2-2-2--|
E|-1-1-1--1-1-1--3-3-3--3-3-3--1-1-1--1-1-1--3-3-3--3-3-3--|
C|-0-0-0--0-0-0--2-2-2--2-2-2--0-0-0--0-0-0--2-2-2--2-2-2--|
G|-2-2-2--2-2-2--0-0-0--0-0-0--2-2-2--2-2-2--0-0-0--0-0-0--|


Chorus
A|-0-0-0-0-0-0-0-0-3-3-3-3-3-3-3-3-0-0-0-0-0-0-0-0-0-0-0-0-0-0-0-0--|
E|-0-0-0-0-0-0-0-0-0-0-0-0-0-0-0-0-1-1-1-1-1-1-1-1-2-2-2-2-2-2-2-2--|
C|-0-0-0-0-0-0-0-0-0-0-0-0-0-0-0-0-0-0-0-0-0-0-0-0-2-2-2-2-2-2-2-2--|
G|-2-2-2-2-2-2-2-2-0-0-0-0-0-0-0-0-2-2-2-2-2-2-2-2-2-2-2-2-2-2-2-2--|

A|-0-0-0-0-0-0-0-0-3-3-3-3-3-3-3-3-0-0-0-0-0-0-0-0-2-2-2-2-2-2-2-2--|
E|-0-0-0-0-0-0-0-0-0-0-0-0-0-0-0-0-1-1-1-1-1-1-1-1-3-3-3-3-3-3-3-3--|
C|-0-0-0-0-0-0-0-0-0-0-0-0-0-0-0-0-0-0-0-0-0-0-0-0-2-2-2-2-2-2-2-2--|
G|-2-2-2-2-2-2-2-2-0-0-0-0-0-0-0-0-2-2-2-2-2-2-2-2-0-0-0-0-0-0-0-0--|


Interlude
A|-0-0-0--0-0-0-6/7-0-0-0--0-0-0-----|
E|-0-0-0--0-0-0-----0-0-0--0-0-0-6/7-|
C|-0-0-0--0-0-0-----0-0-0--0-0-0-----|
G|-2-2-2--2-2-2-----2-2-2--2-2-2-----|


Verse 2
A|-0-0-0--0-0-0--0-0-0--0-0-0--0-0-0-6/7-0--2-2-2-----2-|
E|-0-0-0--0-0-0--0-0-0--0-0-0--1-1-1-----1--3-3-3-6/7-3-|
C|-0-0-0--0-0-0--0-0-0--0-0-0--0-0-0-----0--2-2-2-----2-|
G|-2-2-2--2-2-2--2-2-2--2-2-2--2-2-2-----2--0-0-0-----0-|

A|-0-0-0--0-0-0--0-0-0--0-0-0--0-0-0-6/7-0--2-2-2-----2--0-0-0-6/7-0--2-2-2--2-2-2-|
E|-0-0-0--0-0-0--0-0-0--0-0-0--1-1-1-----1--3-3-3-6/7-3--1-1-1-----1--3-3-3--3-3-3-|
C|-0-0-0--0-0-0--0-0-0--0-0-0--0-0-0-----0--2-2-2-----2--0-0-0-----0--2-2-2--2-2-2-|
G|-2-2-2--2-2-2--2-2-2--2-2-2--2-2-2-----2--0-0-0-----0--2-2-2-----2--0-0-0--0-0-0-|


Chorus
A|-0-0-0-0-0-0-0-0-3-3-3-3-3-3-3-3-0-0-0-0-0-0-0-0-0-0-0-0-0-0-0-0--|
E|-0-0-0-0-0-0-0-0-0-0-0-0-0-0-0-0-1-1-1-1-1-1-1-1-2-2-2-2-2-2-2-2--|
C|-0-0-0-0-0-0-0-0-0-0-0-0-0-0-0-0-0-0-0-0-0-0-0-0-2-2-2-2-2-2-2-2--|
G|-2-2-2-2-2-2-2-2-0-0-0-0-0-0-0-0-2-2-2-2-2-2-2-2-2-2-2-2-2-2-2-2--|

A|-0-0-0-0-0-0-0-0-3-3-3-3-3-3-3-3-0-0-0-0-0-0-0-0-2-2-2-2-2-2-2-2--|
E|-0-0-0-0-0-0-0-0-0-0-0-0-0-0-0-0-1-1-1-1-1-1-1-1-3-3-3-3-3-3-3-3--|
C|-0-0-0-0-0-0-0-0-0-0-0-0-0-0-0-0-0-0-0-0-0-0-0-0-2-2-2-2-2-2-2-2--|
G|-2-2-2-2-2-2-2-2-0-0-0-0-0-0-0-0-2-2-2-2-2-2-2-2-0-0-0-0-0-0-0-0--|


Solo
A|---------13---------------------13----15p13---13h15p13-|
E|-8-10-11-------8-6/8-6--8-10-11------------------------|
C|-------------------------------------------------------|
G|------------12---------------------12-------12---------|


A|---------13----18-17-15-13-13/15---------------13--------------------|
E|-8-10-11-------------------------------8-10-11-----------------------|
C|---------------------------------------------------------------------|
G|------------12-------------------13\12------------12-12^13r12^13r12--|


Chorus
* * * * * * * * * * * * * * * * * * * *
A|-0-0-0-0-0-0-0-0-3-3-3-3-3-3-3-3-0-0-0-0-0-0-0-0-0-0-0-0-0-0-0-0--|
E|-0-0-0-0-0-0-0-0-0-0-0-0-0-0-0-0-1-1-1-1-1-1-1-1-2-2-2-2-2-2-2-2--|
C|-0-0-0-0-0-0-0-0-0-0-0-0-0-0-0-0-0-0-0-0-0-0-0-0-2-2-2-2-2-2-2-2--|
G|-2-2-2-2-2-2-2-2-0-0-0-0-0-0-0-0-2-2-2-2-2-2-2-2-2-2-2-2-2-2-2-2--|


A|-0-0-0-0-0-0-0-0-3-3-3-3-3-3-3-3-0-0-0-0-0-0-0-0-0-0-0-0-0-0-0-0--|
E|-0-0-0-0-0-0-0-0-0-0-0-0-0-0-0-0-1-1-1-1-1-1-1-1-2-2-2-2-2-2-2-2--|
C|-0-0-0-0-0-0-0-0-0-0-0-0-0-0-0-0-0-0-0-0-0-0-0-0-2-2-2-2-2-2-2-2--|
G|-2-2-2-2-2-2-2-2-0-0-0-0-0-0-0-0-2-2-2-2-2-2-2-2-2-2-2-2-2-2-2-2--|


A|-0-0-0-0-0-0-0-0-3-3-3-3-3-3-3-3-0-0-0-0-0-0-0-0-2-2-2-2-2-2-2-2--|
E|-0-0-0-0-0-0-0-0-0-0-0-0-0-0-0-0-1-1-1-1-1-1-1-1-3-3-3-3-3-3-3-3--|
C|-0-0-0-0-0-0-0-0-0-0-0-0-0-0-0-0-0-0-0-0-0-0-0-0-2-2-2-2-2-2-2-2--|
G|-2-2-2-2-2-2-2-2-0-0-0-0-0-0-0-0-2-2-2-2-2-2-2-2-0-0-0-0-0-0-0-0--|


Outro
A|-0-0-0-0-0-0-0-0-2-2-2-2-2-2-2-2-0-0-0-0-0-0-0-0-2-2-2-2-2-2-2-2-|
E|-1-1-1-1-1-1-1-1-3-3-3-3-3-3-3-3-1-1-1-1-1-1-1-1-3-3-3-3-3-3-3-3-|
C|-0-0-0-0-0-0-0-0-2-2-2-2-2-2-2-2-0-0-0-0-0-0-0-0-2-2-2-2-2-2-2-2-|
G|-2-2-2-2-2-2-2-2-0-0-0-0-0-0-0-0-2-2-2-2-2-2-2-2-0-0-0-0-0-0-0-0-|


A|-0-0-0--0-0-0-6/7-0-0-0--0-0-0-9/10-0-0-0--0-0-0-14/15-0-0-0--0-0-0--|
E|-0-0-0--0-0-0-----0-0-0--0-0-0------0-0-0--0-0-0-------0-0-0--0-0-0--|
C|-0-0-0--0-0-0-----0-0-0--0-0-0------0-0-0--0-0-0-------0-0-0--0-0-0--|
G|-2-2-2--2-2-2-----2-2-2--2-2-2------2-2-2--2-2-2-------2-2-2--2-2-2--|

 

Comentarios (0)
Ningún comentario :(
¿Necesitas ayuda, un consejo para compartir o simplemente quieres hablar sobre esta canción? Comience la discusión

Debes iniciar sesión para unirte a la discusión
o Registrarse

 

Acerca de esta canción

No hay información por esta canción.