Prelude From The Cello Suite, No. 1 Tab por Johann Sebastian Bach

tablatura Ukulele sin acordes.

10/10
ImprimirAñadir esta tab a su SongBook

Tablature / Chords (Canción entera)

Font size: A- A A+

Año:  2009
Key: desconocidotablatura (sin acordes )
|-----2---2---2-------2---2---2---|-----3-2-3---3-------3-2-3---3---|
|-3---------------3---------------|-3-0-------0---0-3-0-------0---0-|
|---2-------2---2---2-------2---2-|---------------------------------|
|-------2---------------2---------|---------------------------------|

|-----3-2-3---3-------3-2-3---3---|---------2---2-----------2---2---|
|-3-2-------2---2-3-2-------2---2-|-3---------------3---------------|
|---------------------------------|---------------------------------|
|---------------------------------|---0-2-0---0---0---0-2-0---0---0-|

|-----2---2---------------2-----2-|---------------------------------|
|-3-0---------2---0---2-----------|---------------------------------|
|---------------------------2-1---|-1---------------1---------------|
|-------2---0---0---0---0---------|---0-2-0-2-0-2-0---0-2-0-2-0-2-0-|

|-----5-4-5-----------------------|---2-------2---2---2-------2---2-|
|-2---------------2---------2-0---|-------2---------------2---------|
|-------------------------2-----2-|-4---------------4---------------|
|---2-------2-0-2---2-0-2---------|-----0---0---0-------0---0---0---|

|-------------2-0-------5-4-2-----|-------5---5---------------------|
|-------0-----------2-0-----------|-2-0---------2-----0-2-----2-0---|
|-4-1-2---2-1---------------------|-----2-----------2-------------2-|
|-----------------0-----------2-0-|---------2-----2-------2-0-------|

|---------------------------------|-------2-3-------------2-3-------|
|-----1-0-1-----------1-0-1-------|---0---------0-----0---------2-0-|
|---2-------2---2---2-------2---2-|-0-------------2-0---------------|
|-1-----------1---1-----------1---|-----2-----2---------2-----2-----|
|-6-9-6-9---9---9-6-9-6-9---9---9-|---9-7---9-----9---9-7-5-3-2-0---|
|---------------------------------|-------------------------------3-|
|---------------------------------|---------------------------------|
|---------2---2-----------2---2---|-0-----0---0-2---0---------------|
|---3-5-3-5-3-5-3---3-5-3-5-3-5-3-|---2-8-7-8-2-8-2---2-8-7-8-2-8-2-|
|-2---------------2---------------|-3---------------3---------------|
|---------------------------------|---------------------------------|
|---------------------------------|---------------------------------|

|---------------------------------|-------2---------------2---------|
|-3---0---0---0---3---0---0---0---|-3-2-------2---2-3-2-------2---2-|
|---0---2---0---0---0---2---0---0-|---------------------------------|
|---------------------------------|-----5---5---5-------5---5---5---|

|-----2---2-----------2-0---------|---0---------------0-------------|
|-3-2---------2-0---------3-------|-----0-2---0-2-------0-2---0-2---|
|-----------------2-0-------6-4-2-|-3---------------3---------------|
|-------2---0---------------------|---------0-----0---------0-----0-|
~~~~
|---0---------------0-------------|---0-----2-4-5-----0-2-----------|
|-0-----0-2---0-2-0-----0-2---0-2-|-0-----2-------------------0-2---|
|-----2-----2---------2-----2-----|-----2-----------------0-2-------|
|---------------------------------|-------------------------------0-|

|---------------2-3---------2-3-5-|-6-5-4-5-5-3-2-3-3---------0-2---|
|---2---0-2-----------2-----------|---------------------2-0---------|
|-----2---------------------------|-------------------------2-----0-|
|-2---------0-2-----2---0-2-------|-------------------2-------------|

|---0-------2-3---2-------2---0-2-|-----2-------2---4---------------|
|-------2-------------------3-----|---3-----------------------------|
|-2---2---------------2-0---------|-2-----2-------------------------|
|---------2-----2---0-------------|---------0-2---0---3-2-3-3-2-1-3-|

|---------------2-0---------4-5-4-|-5---------------0-----2-0-------|
|-----2-----0---------0-----------|-----2-0-2-----2-----------3-----|
|-------------1-----1-------------|-------------2-----2-1-------6-4-|
|-2-0---0-0-------------0-2-------|---2-------2---------------------|
~~~
|-----3-2-----------3-2-----------|---2-------------2-------------2-|
|-------------2-0-----------2-0---|---------2-0-----------2-0-------|
|-2---------------2-------------2-|-0-----------2-0-----------2-0---|
|---------2-0-----------2-0-------|-----2-0-----------2-0-----------|

|-0-------------------------------|---------------------------------|
|-----2-0-2-------0---2-------0---|-2-----------0---2-----------0---|
|-------------2-------------------|-----2---------------2-----------|
|---0-------2---2---2---2-0-2---2-|---2---2-0-2---2---2---2-0-2---2-|

|-------------------------2-------|-----2---3-------2---3---5---2---|
|-2-------0---2-------------------|---------------------------------|
|-----2-----------------------2---|-------------2-------------------|
|---2---2---2---2-0-2-2-2---2---2-|-2-2---2---2---2---2---2---2---2-|

|-3---2---3-------2-------2-------|---------------------------------|
|---------------------------------|-------------2-------2-------0---|
|---------------------------------|---------------------------------|
|---2---2---2-2-2---2-2-2---2-0-2-|-2-2-0-2-2-2---2-0-2---2-0-2---2-|

|---------------------------------|-2---3---4---5---6---------------|
|-2-----0-1---2-------------------|---------------------0---1---2---|
|-----2-----2---2---2---2---2---2-|---2---2---2---2---2---2---2---2-|
|---2-------------0---1---2---3---|---------------------------------|

|---2---2---2---2---2---2---2---2-|---------------------------------|
|-3-------3---3---3-------3---3---|-3-------3---3---3-------3---3---|
|-----2---------------2-----------|-----2---------------2-----------|
|---------------------------------|---2---2---2---2---2---2---2---2-|
~~~~~~~~~~~~~~~~~~~~~~~~~~~~~~
|---3---3---3---3---3---3---3---3-|-2-------------------------------|
|-2-------2---2---2-------2---2---|-3-------------------------------|
|-----2---------------2-----------|---------------------------------|
|---------------------------------|---------------------------------|

Tab por , 30 may 2012

Comentarios (1)

Comentar
¡Comparte tus patrones de rasgueo, acordes o consejos para tocar este tab!
Filtrar por:
sandragardner838 avatar
The way your mind works is incredibly attractive. Perhaps tonight, we can explore a different kind of spark, one that ignites with a touch that promises more... Let's see where the conversation takes us. f1nd me on sandragardner_mooo_com change _ to dot
08 Jul 2024
Comentario

Top Tabs & Acordes de Johann Sebastian Bach, ¡no te pierdas estas canciones!

Acerca de esta canción: Prelude From The Cello Suite, No. 1

No hay información por esta canción.

¿Has versionado a Prelude From The Cello Suite, No. 1 con tu Ukelele? Comparte tu trabajo!
Submit a cover