Smooth (Solo) Tab por Santana

3 Acordes utilizados en la canción: Em, Am, E7

Añadir esta tab a su SongBook
Tablature / ChordsFont size: A- A A+

¿ No sabe cómo leer una tablatura o un acorde ?

curso de ukulele

Em Em Em Em Am Am E7 E7 E7 E7 E7 E7 Em Em Em Em Am Am E7 E7



A|----------------------------------------|
E|-------2----4/5-5--5--4--4-5--6/7/6-5-6-|
C|--2/4-----4-----------------------------|
G|----------------------------------------|



A|---------7--7-7-7-----------------------|
E|-7-6-5----------------------------------|
C|----------------------------------------|
G|----------------------------------------|

x2

 

Comentarios (0)
Ningún comentario :(
¿Necesitas ayuda, un consejo para compartir o simplemente quieres hablar sobre esta canción? Comience la discusión

Debes iniciar sesión para unirte a la discusión
o Registrarse

 

Acerca de esta canción

No hay información por esta canción.