Smooth (Intro) Tab por Santana

tablatura Ukulele sin acordes.

Añadir esta tab a su SongBook
Tablature / ChordsFont size: A- A A+

¿ No sabe cómo leer una tablatura o un acorde ?

curso de ukulele

SMOOTH


x---------------------------------------
x-------3-----3--5----------------------
x---------------------------------------
x-7--9-----9----------------------------

x---------------------------------------
x---4--5--------------5--------5--------
x---------------------------------------
x---------4--4--5--4-----4--5-----------

x---------------------------------------
x-----------------------3---------------
x---------------------------------------
x---7--9--7--9--7--9------7--5----------

x---------------------------------------
x-----------5--4--5------5--------------
x---------------------------------------
x---7--5--4-----------4-----------------



PS: Don't forget to rate if you find it useful! Enjoy!

 

Comentarios (0)
Ningún comentario :(
¿Necesitas ayuda, un consejo para compartir o simplemente quieres hablar sobre esta canción? Comience la discusión

Debes iniciar sesión para unirte a la discusión
o Registrarse

 

Acerca de esta canción

No hay información por esta canción.