Crazy Train Solo (Solo) Tab por Ozzy Osbourne

tablatura Ukulele sin acordes.

Añadir esta tab a su SongBook
Tablature / ChordsFont size: A- A A+

¿ No sabe cómo leer una tablatura o un acorde ?

curso de ukulele

P H  P  H     P    P H  P H      P     P H  P H      P       
A----------------------------------------------------------------|
E------2-5---2-5-----2----2-5--2-5------2-----2-5--2-5------2----|
C----------------------------------------------------------------|
G---6-------------6----6-------------6-----6-------------6-------|
P H P H P P H P H P P H P H P
A----------------------------------------------------------------|
E----2-5--2-5------2-----2-5--2-5------2-----2-5--2-5------2-----|
C----------------------------------------------------------------|
G-6-------------7-----7-------------7-----7-------------7--------|
P H P H P P H P H P H P s
A----------------------------------------------------------------|
E----2-5--2-5------5--2-----4w-ba4--2-5--2--4-5--4-)-------------|
C---------------------------------------------------4-2-4---6----|
G-7-------------7-------------4--------------------------bu(--)--|
P
A------------------e----------------------------------------------------------|
E--5----------------------------------------------bu(--)----------|
C-----4---6----(rake-)--------------------------------------------|
G------bu(--)--x---14--13--11---9----11----11--13--14--14----16---11--14--11--|
P P P P s P H
A-----------------------------------------------------------------|
E---------------------------------5---------------(--oo-5--5-----|
C----------------------------------------------------------------|
G--9--11--9--7--6---7--6--4--6--4------4-bu(6-)--7---7---------4--|
H H P H P H P H P H P H s P H P
A------------------------------------------------------------------------------|
E-------------------------------------------------21----21----21-|
C----------------------------------------------------------------|
G-6--9---11--14--11-------14--11--15--12--15--12--15--13--16-----14-----15-----|
P s H P H P H P H P H P H P H P
A----------------------------------------------------------------------------------|
E---------------x------------------------------------------------|
C----------------------------------------------------------------|
G-----16--14--13-----16--13--16--13--16--13--16--13--16--13--16--13---11--12--11---|
P H P H P H H P ~~~~~
A-----------------------------------------------------------------------|
E-----------5-----------5-------------4--5--4--5--4--5--4---------|
C-----------------------------------------------------------------|
G--11--9--11-----11--9--11-----11--9--11---------------------------4----|
~~~~~~ H H H H H H H H H H H H
A-------------------------------------------------------------------|
E------------------4--5-------------------------4--5--------------|
C-----------------------------------------------------------------|
G---------8--9--11--------4---6--8--9--8--9--11---------4--6--8--9--|

 

Comentarios (0)
Ningún comentario :(
¿Necesitas ayuda, un consejo para compartir o simplemente quieres hablar sobre esta canción? Comience la discusión

Debes iniciar sesión para unirte a la discusión
o Registrarse

 

Acerca de esta canción

No hay información por esta canción.