Crazy Train (Riff) Tab por Ozzy Osbourne

tablatura Ukulele sin acordes.

Añadir esta tab a su SongBook
Tablature / ChordsFont size: A- A A+

¿ No sabe cómo leer una tablatura o un acorde ?

curso de ukulele

A-----0--1---0---------------------------------------------------
E----------------3-1-0-1-3-1-0-----------------------------------
C-2-2--2--2----2---------------0---------------------------------
G----------------------------------------------------------------

A-----0--1---0---------------------------------------------------
E----------------3-1-0-1-3-1-0-----------------------------------
C-2-2--2--2----2---------------0-2-------------------------------
G----------------------------------------------------------------

 

Comentarios (2)
Debes iniciar sesión para unirte a la discusión
o Registrarse

 

 avatar
flag for (ISO2)
killer
27 Feb 2012
Bodacious avatar
flag for US(ISO2) (Hudson)
this is the most logical way to do it. haha
19 Dec 2010
Acerca de esta canción

No hay información por esta canción.